>
 >
I Set My Friends On Fire 2

I Set My Friends On Fire 2 Guitar Tabs

Aiden - I Set My Friends On Fire 2 chords, tabs, tablatures, lyrics

Guitar lessons | Add/correct | Request | Top 50 tabs Artists:  A B C D E F G H I J K L M N O P Q R S T U V W X Y Z 0-9

I Set My Friends On Fire 2 Guitar Tabs – Aiden

CD, Sheet music, Poster

Do you like I Set My Friends On Fire 2? Share with your friends now
Bass TabsTabsTabs v2Tabs v3Tabs v4Tabs v5
Intro:
Guitar 1
E|---------------------------------------------------------------------|
B|---------------------------------------------------------------------|
G|---------------------------------------------------------------------|
D|-----111-----222----444---444----------------------------------------|
A|-----111-----222----444---444----------------------------------------|
D|-----111-----222----444---444----------------------------------------|
pm     ...     ...    ...   ...

Guitar 2
E|---------------------------------------------------------------------|
B|---------------------------------------------------------------------|
G|---------------------------------------------------------------------|
D|--434----434----434---43464343---------------------------------------|
A|-------------------------------------4-------------------------------|
D|---------------------------------------------------------------------|

then...

Guitar 1
E|--------------------------------0~-------------------------------|
B|--------------------------------0~-------------------------------|
G|--------------------------------0~-------------------------------|
D|-----111-----222----444---444---0~-------------------------------|
A|-----111-----222----444---444---0~-------------------------------|
D|-----111-----222----444---444---0~-------------------------------|
pm     ...     ...    ...   ...

Guitar 2
E|--------------------------------------------------------------------|
B|--------------------------------------------------------------------|
G|--------------------------------------------------------------------|
D|--434----434----434-----434643--------------------------------------|
A|--------------------------------4~----------------------------------|
D|--------------------------------------------------------------------|

Verse:

Guitar 1
E|-----------------------------------------------|
B|-----------------------------------------------|
G|-----------------------------------------------|
D|--000-0-2--000-0-2--000-0-2--6666666644443333--|
A|--000-0-4--000-0-4--000-0-4--------------------|
D|--000-0----000-0----000-0----------------------|
pm  ... .    ... .    ... .

Guitar 2
E|-------------------------------------------|
B|-------------------------------------------|
G|-------------------------------------------|
D|--000-0-2--000-0-2--000-0-2---6---------4--|
A|--000-0-4--000-0-4--000-0-4---6---------4--|
D|--000-0----000-0----000-0-----6---------4--|
pm  ... .    ... .    ... .

Interlude:

Guitar 1
E|----------------------------------------------------------------------|
B|----------------------------------------------------------------------|
G|----------------------------------------------------------------------|
D|----8-6---------------8-6----------------8-6---------------8-6--------|
A|--6-----8-9-8-9-6-6------8-9-8-9-6-6------8-9-8-9-6-6------8-9-8-9-6--|
D|----------------------------------------------------------------------|

Guitar 2
E|--------------------------------------------------------------------|
B|--------------------------------------------------------------------|
G|--------------------------------------------------------------------|
D|--------------------------------------------------------------------|
A|--6666666666666666999999888888999944444444444444449999998888889999--|
D|--------------------------------------------------------------------|

Verse 2:

Guitar 1
E|---------------------------------------|
B|---------------------------------------|
G|---------------------------------------|
D|--11111--11111--22222--44444-66664444--|
A|--11111--11111--22222--44444-----------|
D|--11111--11111--22222--44444-----------|
pm  .....  .....  .....  .....

then...
E|-------------------------------------|
B|-------------------------------------|
G|-------------------------------------|
D|--111-1-2--111-11-2--222-2-444-44-2--|
A|--111-1-4--111-11-4--222-4-444-44-4--|
D|--111-1----111-11----222---444-44----|
pm  ... .    ... ..    ...   ... ..

Guitar 2 (repeat x 16)
E|---------------|
B|---------------|
G|---------------|
D|----8-6--------|
A|--6-----8-9-6--|
D|---------------|

Harmony:

Guitar 1
E|---------------|
B|---------------|
G|---------------|
D|----8-6--------|
A|--6-----8-9-6--|
D|---------------|

Guitar 2
E|----6-4--------|
B|--4-----6-7-4--|
G|---------------|
D|---------------|
A|---------------|
D|---------------|

Interlude:

Guitar 1
E|----------------------------------------------------------------------|
B|----------------------------------------------------------------------|
G|----------------------------------------------------------------------|
D|----8-6---------------8-6----------------8-6---------------8-6--------|
A|--6-----8-9-8-9-6-6------8-9-8-9-6-6------8-9-8-9-6-6------8-9-8-9-6--|
D|----------------------------------------------------------------------|

Guitar 2
E|--------------------------------------------------------------------|
B|--------------------------------------------------------------------|
G|--------------------------------------------------------------------|
D|--------------------------------------------------------------------|
A|--6666666666666666999999888888999944444444444444449999998888889999--|
D|--------------------------------------------------------------------|

then...

Guitar 1
E|--0--|
B|--0--|
G|--0--|
D|--0--|
A|--0--|
D|--0--|

Bridge:

Guitar 1 (comes in on 4th time of the repeated 12 below)
E|----------------------------------------------------------|
B|----6-6-7-9-7-6h7--6-6-7-9-7-6h7-6--7--9--7--6--7--9--11--|
G|--6-----------------6-------------------------------------|
D|----------------------------------------------------------|
A|----------------------------------------------------------|
D|----------------------------------------------------------|

Guitar 2
E|----------------------------------------------|
B|--6--6--6--9---7---76---6---6---6--7--9---76--|
G|---6--6--6--6---6---------6---6---6--6--6-----|
D|----6--6------6---6---------6---6------6--6---|
A|----------------------------------------------|
D|----------------------------------------------|

Outro:

Guitar 1 and 2
E|--------------------------------------------|
B|--------------------------------------------|
G|--------------------------------------------|
D|--8888888888666666666644444444443333333333--|
A|--8888888888666666666644444444443333333333--|
D|--8888888888666666666644444444443333333333--|
pm  ... ..... ... ..... ... ..... .... .....

end on
E|------|
B|------|
G|------|
D|--8~--|
A|--8~--|
D|--8~--|





Comments


Popular Aiden tabs & chords
Knife Blood Nightmare Bass Tabs
Moment Bass Tabs
Die Romantic Intro 1 Tabs
Genetic Design For Dying Tabs
Hurt Me Tabs
I Set My Friends On Fire 4 Tabs
Its Cold Tonight Intro Tabs
Life I Left Behind 1 Tabs
We Sleep Forever 1 Tabs
World By Storm Tabs


Song lyrics



↑ Back to top | Tablatures and chords are parodies/interpretations of the original songs. You may use it for private study, scholarship, research or language learning purposes only
© 2014 AZChords.com Contact us | Privacy policy | DMCA | Add/correct tabs | Request tabs | Top 50 tabs