» » »

Aiden, I Set My Friends On Fire Tabs (ver.2)

Artists:  A B C D E F G H I J K L M N O P Q R S T U V W X Y Z # 

I Set My Friends On Fire Tabs (ver.2)

Aiden Tabs
 Rating:
3.6/5 (7 votes)
I Set My Friends On Fire lessons Tabs too difficult? Try these video lessons and learn fast
                i dont no whether this is totally right .  any corrections are welcome.  this is a
awesome song from a totally awesome band!!! aiden rock!!!

Aiden - I set my friends on fire
	(Our gangs dark oath)

	Tuning:standard


  part A    (i set) i set (my friends) my friends on fire.........

	guitar 1
     |--212----212----212----21242----------------|
     |------------------------------2-------------|
     |--------------------------------------------|     x2
     |--------------------------------------------|
     |--------------------------------------------|
     |--------------------------------------------|

	guitar 2
     |-----------------------------|  i havnt written the exact rthym here
     |-----------------------------| but u can work it out
     |-------33----44----66----66--|         x2
     |-------33----44----66----66--|
     |-------11----22----44----44--|
     |-----------------------------|

       part B  (00:16)    I set (i set) my friends (my friends) on fire, now i will give up..................

		guitar 2
    |--------------------------------------------------------------------|
    |--------------------------------------------------------------------|
    |--333-4-6---333--4-6--333-4-6---444-666-----------------------------|
    |--333-4-6---333--4-6--333-4-6---444-666-----------------------------|
    |--111-2-4---111--2-2--111-2-4---222-444-----------------------------|
    |--------------------------------------------------------------------|

      part C  (00:29)
       guitar 1

  |-----------------------------------------------------------------------------------|
  |-----------------------------------------------------------------------------------|
  |--8-8-8-8-8-8-8-8-11-11-11-11-10-10-10-10-6-6-6-6-6-6-6-6-11-11-11-11-10-10-10-10--|
  |-----------------------------------------------------------------------------------|
  |-----------------------------------------------------------------------------------|
  |-----------------------------------------------------------------------------------|

	guitar 2
  |------------------------------------------------------------------------------------------|
|--------------------------------------------------------------------------------------------|
|8-11-10------------------8-11-10------------------8-11-10------------------8-11-10----------|
|----------11-8-11-8-11-----------11-8-11-8-11-----------11-8-11-8-11----------11-8-11-8-11--|
|--------------------------------------------------------------------------------------------|
|--------------------------------------------------------------------------------------------|
     part D  (00:36)    If i tell you now i will not feel alive. if i kill you now i
not feel pride................
	guitar 1

  |-----2-1------------|
  |--4---------1-2-----|
  |----------3---------|   x24
  |--------------------|
  |--------------------|
  |--------------------|

   guitar 2

   |---------------------------------------------------|
   |---------------------------------------------------|
   |--33-3333----33-3333----44-4444----66-6666---------|    x2
   |--33-3333----33-3333----44-4444----66-6666---------|
   |--11-1111----11-1111----22-2222----44-4444---------|
   |---------------------------------------------------|


   |----------------------------------------------------|
   |----------------------------------------------------|
   |--3-3-3-333--3-3-3-333--4-4-4-444--6-6-6-666--------|   x2
   |--3-3-3-333--3-3-3-333--4-4-4-444--6-6-6-666--------|
   |--1-1-1-111--1-1-1-111--2-2-2-222--4-4-4-444--------|
   |----------------------------------------------------|

  listen for when this next bit comes in

   |-----------------------------------------------------|
   |-----------------------------------------------------|
   |--3-------------3-------------4-----------6----------|
   |--3-------------3-------------4-----------6----------|
   |--1-------------1-------------2-----------4----------|
   |-----------------------------------------------------|


Then both guitars repeat part C twice, both ending on
|--------|
|--------|
|---8----|
|--------|
|--------|
|--------|

   part E  (01:44)     “the sun came through the leaves and lit them up like they were
fire.............

        guitar 1
|------------------------------------------|
|-----6------6------9-----7------7--6----- |
|-------6------6------6-----6------------- |
|--6------6------6------6-----6----------- |
|------------------------------------------|
|------------------------------------------|

|------------------------------------------|
|-----6------6------7-----9------7--6----- |
|-------6------6------6-----6------------- |
|--6------6------6------6-----6----------- |
|------------------------------------------|
|------------------------------------------|
                   x6
        guitar 2
   |---8-9 ---------11-8-9-------------11-8-6-4-------------------------|
   |---------6-7---------------6-7-9-7--------------7-----9-------------|   x2
   |--------------------------------------------------------------------|
   |--------------------------------------------------------------------|
   |--------------------------------------------------------------------|
   |--------------------------------------------------------------------|

     part F   (02:27)   one more time,one more time, one more life when i pray its time............

guitar 1 just carries on playing part E until the end.

 guitar 2
 |--------------------------------------------------------------------------------|
 |--------------------------------------------------------------------------------|
 |---33-3-33--33-3-33-------------------------------------------------------------|
 |---11-1-11--11-1-11--66-6-66--66-6-66--44-4-44--44-4-44--33-3-33--33-3-33-------|  x2
 |---11-1-11--11-1-11--44-4-44--44-4-44--22-2-22--22-2-22--11-1-11--11-1-11-------|
 |----------------------44-4-44--44-4-44--22-2-22--22-2-22--11-1-11--11-1-11------|

end on:
  |------|
  |------|
  |--3---|
  |--3---|
  |--1---|
  |------|

n thats it... hope u lik it.......
            
Submit corrections

comments powered by Disqus
↑ Back to top | Aiden Tabs for I Set My Friends On Fire. Lyrics for acoustic guitar and electric guitar. Tablatures and chords are parodies/interpretations of the original songs. You may use it for private study, scholarship, research or language learning purposes only