>
 >
I Set My Friends On Fire

I Set My Friends On Fire Guitar Tabs

Aiden - I Set My Friends On Fire chords, tabs, tablatures, lyrics

Guitar lessons | Add/correct | Request | Top 50 tabs Artists:  A B C D E F G H I J K L M N O P Q R S T U V W X Y Z 0-9

I Set My Friends On Fire Guitar Tabs – Aiden

CD, Sheet music, Poster

Do you like I Set My Friends On Fire? Share with your friends now
Bass TabsTabsTabs v2Tabs v3Tabs v4Tabs v5
It's in D Tuning, obviously... And i took this off a few versions i've seen, none of 
sounded right exactly... So I made my own.
And as not to plagiarize, i got the tab from Wayne Cleaver and edited it...

Intro:
Guitar 1
E|---------------------------------------------------------------------|
B|---------------------------------------------------------------------|
G|------------444----666----666----------------------------------------|
D|-----111----444----666----666----------------------------------------|
A|-----111----222----444----444----------------------------------------|
D|-----111-------------------------------------------------------------|


Guitar 2
E|---------------------------------------------------------------------|
B|---------------------------------------------------------------------|
G|---------------------------------------------------------------------|
D|--434----434----434---43464343---------------------------------------|
A|----------------------------------4----------------------------------|
D|---------------------------------------------------------------------|

then...

Guitar 1
E|------------------------------------------------------------------|
B|------------------------------------------------------------------|
G|------------444----666----666-------------------------------------|
D|-----111----444----666----666----1~-------------------------------|
A|-----111----222----444----444----1~-------------------------------|
D|-----111-------------------------1~-------------------------------|

Guitar 2
E|--------------------------------------------------------------------|
B|--------------------------------------------------------------------|
G|--------------------------------------------------------------------|
D|--434----434----434-----434643--------------------------------------|
A|--------------------------------4~----------------------------------|
D|--------------------------------------------------------------------|

Verse:

Guitar 1
E|-----------------------------------------------|
B|-----------------------------------------------|
G|-----------------------------------------------|
D|--111-1-2--111-1-2--111-1-2--6666666644443333--|
A|--111-1-4--111-1-4--111-1-4--------------------|
D|--111-1----111-1----111-1----------------------|
pm  ... .    ... .    ... .

Guitar 2
E|-------------------------------------------|
B|-------------------------------------------|
G|-------------------------------------------|
D|--111-1-2--111-1-2--111-1-2---6---------4--|
A|--111-1-4--111-1-4--111-1-4---6---------4--|
D|--111-1----111-1----111-1-----6---------4--|
pm  ... .    ... .    ... .

Interlude:

Guitar 1
E|----------------------------------------------------------------------|
B|----------------------------------------------------------------------|
G|----------------------------------------------------------------------|
D|----8-6--------------8-6--------------8-6--------------8-6------------|
A|--6-----8-9-8-9-6-6------8-9-8-9-6-6------8-9-8-9-6-6------8-9-8-9-6--|
D|----------------------------------------------------------------------|

Guitar 2
E|--------------------------------------------------------------------|
B|--------------------------------------------------------------------|
G|--------------------------------------------------------------------|
D|--------------------------------------------------------------------|
A|--6666666666666666999999888888999944444444444444449999998888889999--|
D|--------------------------------------------------------------------|

Verse 2:

Guitar 1
E|---------------------------------------|
B|---------------------------------------|
G|----------------44444--66666-----------|
D|--11111--11111--44444--66666-66664444--|
A|--11111--11111--22222--44444-----------|
D|--11111--11111-------------------------|
pm  .....  .....  .....  .....

then...
E|-------------------------------------|
B|-------------------------------------|
G|---------------------444---666-------|
D|--111-1-2--111-11-2--444-2-666-44-2--|
A|--111-1-4--111-11-4--222-4-444-44-4--|
D|--111-1----111-11--------------44----|
pm  ... .    ... ..    ...   ... ..

Guitar 2 (repeat x 16)
E|---------------|
B|---------------|
G|---------------|
D|----8-6--------|
A|--6-----8-9-4--|
D|---------------|

Harmony:

Guitar 1
E|---------------|
B|---------------|
G|---------------|
D|----8-6--------|
A|--6-----8-9-4--|
D|---------------|

Guitar 2
E|----6-4--------|
B|--4-----6-7-4--|
G|---------------|
D|---------------|
A|---------------|
D|---------------|

Interlude:

Guitar 1
E|----------------------------------------------------------------------|
B|----------------------------------------------------------------------|
G|----------------------------------------------------------------------|
D|----8-6--------------8-6--------------8-6--------------8-6------------|
A|--6-----8-9-8-9-6-6------8-9-8-9-6-6------8-9-8-9-6-6------8-9-8-9-6--|
D|----------------------------------------------------------------------|

Guitar 2
E|--------------------------------------------------------------------|
B|--------------------------------------------------------------------|
G|--------------------------------------------------------------------|
D|--------------------------------------------------------------------|
A|--6666666666666666999999888888999944444444444444449999998888889999--|
D|--------------------------------------------------------------------|

then...

Guitar 1
E|-----|
B|-----|
G|-----|
D|--1--|
A|--1--|
D|--1--|

Bridge:

Guitar 1 (comes in on 4th time of the repeated 12 below)
E|----8h9-------11h9-8h9-------11h9-8-6-9-7-6-9-------------|
B|----------------------------------------------------------|
G|----------------------------------------------------------|
D|----------------------------------------------------------|
A|----------------------------------------------------------|
D|----------------------------------------------------------|

Guitar 2
E|----------------------------------------------|
B|--6--6--6--9---7---76---6---6---6--7--9---76--|
G|---6--6--6--6---6---------6---6---6--6--6-----|
D|6---6--6------6---6---6-----6---6------6--6---|
A|----------------------------------------------|
D|----------------------------------------------|

Guitar 3
E|----------------------------------------------------------|
B|--------6h7-9----------6h7-9-7-6-7-6-----6---9------------|
G|-------------------------------------6--------------------|
D|----------------------------------------------------------|
A|----------------------------------------------------------|
D|----------------------------------------------------------|


Outro:

Guitar 1 and 2
E|--------------------------------------------|
B|--------------------------------------------|
G|--------------------------------------------|
D|--8888888888666666666644444444443333333333--|
A|--8888888888666666666644444444443333333333--|
D|--8888888888666666666644444444443333333333--|
pm  ...       ...       ...       ...


Guitar 1 and 2
E|--------------------------------------------|
B|--------------------------------------------|
G|--------------------------------------------|
D|--8888888888666666666644444444443333333333--|
A|--8888888888666666666644444444443333333333--|
D|--8888888888666666666644444444443333333333--|

end on
E|------|
B|------|
G|------|
D|--8~--|
A|--8~--|
D|--8~--|





Comments


Popular Aiden tabs & chords
Last Sunrise Bass Tabs
Moment Chords
Cold December Tabs
Deactivate Tabs
Die Romantic Tabs
Last Sunrise Tabs
Life I Left Behind 2 Tabs
Silent Eyes Tabs
Silent Eyes 1 Tabs
She Will Love You Ukulele


Song lyrics



↑ Back to top | Tablatures and chords are parodies/interpretations of the original songs. You may use it for private study, scholarship, research or language learning purposes only
© 2014 AZChords.com Contact us | Privacy policy | DMCA | Add/correct tabs | Request tabs | Top 50 tabs