» » »

Aiden, Hurt Me Tabs (ver.1)

Artists:  A B C D E F G H I J K L M N O P Q R S T U V W X Y Z # 

Hurt Me Tabs (ver.1)

Aiden Tabs
Rating:
3/5 (2 votes)
Hurt Me lessons Tabs too difficult? Try these video lessons and learn fast
                Aiden- Hurt Me
josephbilly84

E|-------------------|
B|-------------------|
G|-------0-------0---|
D|---1-----1-------1-|
A|-3---3-------3-----|
D|-------------------|12x

E|--------------------------|
B|-------------------10-8-7-|
G|-----11-----11------------|
D|-9-9----9-9----9-9--------|
A|--------------------------|
D|--------------------------|4x

E|----------|
B|----------|
G|----3~-5~-|
D|-1~-3~-3~-|
A|-1~-1~-3~-|
D|-1~-------|

  Chorus 
E|---------------|  |---------------|
B|---------------|  |---------------|
G|---------------|  |---------3-3-5-|
D|-1-1--1-3--1-1-|  |-1-1-1-1-3-3-5-|
A|-1-1--1-1--1-1-|  |-1-1-1-1-1-1-3-|
D|-1-1--1-1--1-1-|3x|-1-1-1-1-------|

E|-------------------|
B|-------------------|
G|-------0-------0---|
D|---1-----1-------1-|
A|-3---3-------3-----|
D|-------------------|4x

E|--------------------------|
B|-------------------10-8-7-|
G|-----11-----11------------|
D|-9-9----9-9----9-9--------|
A|--------------------------|
D|--------------------------|4x

E|----------|
B|----------|
G|----3~-5~-|
D|-1~-3~-3~-|
A|-1~-1~-3~-|
D|-1~-------|

  Chorus 2x
E|---------------|  |---------------|
B|---------------|  |---------------|
G|---------------|  |---------3-3-5-|
D|-1-1--1-3--1-1-|  |-1-1-1-1-3-3-5-|
A|-1-1--1-1--1-1-|  |-1-1-1-1-1-1-3-|
D|-1-1--1-1--1-1-|3x|-1-1-1-1-------|

E|-----------------------------------------------------------------|
B|-------------------------------------------------4-4-4-4-4-4-4-4-|
G|-----------------3-3-3-3-3-3-3-3-----------------3-3-3-3-3-3-3-3-|
D|-1-1-1-1-1-1-1-1-3-3-3-3-3-3-3-3-1-1-1-1-1-1-1-1-1-1-1-1-1-1-1-1-|
A|-1-1-1-1-1-1-1-1-1-1-1-1-1-1-1-1-1-1-1-1-1-1-1-1-----------------|
D|-1-1-1-1-1-1-1-1-----------------1-1-1-1-1-1-1-1-----------------|4x
  Palm mute the first two times.
   
   / /^/ ^/ ^/ / /^/ ^/ ^/ / /^/ ^/ ^/ ^ /
E|-----------------------------------------|
B|-----------------------------------------|
G|-------------3-333-33-33-5-555-55-55-----|
D|-1-111-11-11-3-333-33-33-5-555-55-55-6-6-|
A|-1-111-11-11-1-111-11-11-3-333-33-33-6-6-|
D|-1-111-11-11-------------------------6-6-|
            
Submit corrections

comments powered by Disqus
↑ Back to top | Aiden Tabs for Hurt Me. Lyrics for acoustic guitar and electric guitar. Tablatures and chords are parodies/interpretations of the original songs. You may use it for private study, scholarship, research or language learning purposes only