>
 >
Horror Queen

Horror Queen Guitar Tabs

Aiden - Horror Queen chords, tabs, tablatures, lyrics

Guitar lessons | Add/correct | Request | Top 50 tabs Artists:  A B C D E F G H I J K L M N O P Q R S T U V W X Y Z 0-9

Horror Queen Guitar Tabs – Aiden

CD, Sheet music, Poster

Do you like Horror Queen? Share with your friends now
Tabs
-----------------------------------------------------------------------------
                                Aiden - HORROR QUEEN TAB
-----------------------------------------------------------------------------

This song is dark, fast, and surprisingly simple once you get the hang of it. It's in 
Drop C tuning and can't be played any other way.

I hear two guitars in the beginning; however, it can be done with just a guitar and a bass.

Intro Guitar 1
D|-----|--------------------|
A|-----|o------------------o|
F|-----|--------------------|
C|-3-0-|-0-3p0h5p0-7-5-3-2--|
G|-3-0-|o------------------o|
C|-3-0-|--------------------|x3
Then...

D|-------------------|
A|-------------------|
F|-------------------|
C|-0-3p0h5p0-2-3-2---|
G|-----------------3-|
C|-------------------|

Intro Guitar 2. Guitar 2 is just power chords to emphasize the C minor key throughout 
the introduction.
D|---------------------------------------------------|
A|---------------------------------------------------|
F|---------------------------------------------------|
C|-3-0---------------0----------3----------5-5555555-|
G|-3-0-guitar 1 lead-0-G 1 lead-3-G 1 lead-5-5555555-|
C|-3-0---------------0----------3----------5-5555555-|

Up/down strumming patterns
D|-----------------------------------------|
A|-----------------------------------------|
F|-----------------------------------------|
C|-0-------------3------------5------------|
G|-0-------------3------------5------------|
C|-0-(16 counts)-3-(8 counts)-5-(8 counts)-|

Verse 1
Guitar 1 & 2
It's damn near impossible to tab out this rhythm with all the ridiculousness that is the 
palm mutes. I'll give you the counts.
D|------------------------------------|
A|------------------------------------|
F|------------------------------------|
C|-0-----------3----------5-----------|
G|-0-----------3----------5-----------|
C|-0x16 counts-3x8 counts-5-x8 counts-| x2

Pre-chorus
Guitar 1
(Low C string) C|-5brbr-|
A very quick yet extreme bend release, bend release.

Chorus
Guitar 1 and 2
D|------------------------------------|
A|------------------------------------|
F|-------------5-----------3----------|
C|-0-----------5-----------3----------|
G|-0-----------3x 8 counts-1x8 counts-|
C|-0x16 counts------------------------|x2

Repeat Intro
Repeat Verse with same counts
Don't do the "pre chorus" after the second verse.
Repeat chorus.
Repeat 1 segment of the intro.

Interlude
(You walk beyond the grave...)
D|-------------|
A|-------------|
F|-7~-3~-5~-7~-|
C|-7~-3~-5~-7~-|
G|-5~-1~-3~-5~-|
C|-------------|x2

D|-------------------------------------------------------------|
A|-------------------------------------------------------------|
F|-7-777777777777-3-333333333333-5-555555555555-3-333333333333-|
C|-7-777777777777-3-333333333333-5-555555555555-3-333333333333-|
G|-5-555555555555-1-111111111111-3-333333333333-1-111111111111-|
C|-------------------------------------------------------------|
     ............   ............   ............   ............
D|--------------------------------------------------|
A|--------------------------------------------------|
F|-5555555555555555---------------------------------|
C|-5555555555555555---------------------------------|
G|-3333333333333333- (or 16 counts)-----------------|
C|-slowly release your palm mute on this last part.-|

Repeat Chorus. Make it loud.

That should be it, guys.

. = Palm mute
~ = Hold note
p = pulloff
h = hammer on
brbr = bend release bend release
o---o = Repeat





Comments


Popular Aiden tabs & chords
One Love Bass Tabs
Scavengers Of The Damned Bass Tabs
Silent Eyes Chords
Breathless Tabs
Die Romantic 2 Tabs
Die Romantic Intro Tabs
Last Sunrise 2 Tabs
Last Sunrise 6 Tabs
Life I Left Behind Tabs
She Will Love You Ukulele


Song lyrics



↑ Back to top | Tablatures and chords are parodies/interpretations of the original songs. You may use it for private study, scholarship, research or language learning purposes only
© 2014 AZChords.com Contact us | Privacy policy | DMCA | Add/correct tabs | Request tabs | Top 50 tabs