>
 >
Enjoy The View

Enjoy The View Guitar Tabs

Aiden - Enjoy The View chords, tabs, tablatures, lyrics

Guitar lessons | Add/correct | Request | Top 50 tabs Artists:  A B C D E F G H I J K L M N O P Q R S T U V W X Y Z 0-9

Enjoy The View Guitar Tabs – Aiden

CD, Sheet music, Poster

Do you like Enjoy The View? Share with your friends now
Tabs
     Aiden
"Enjoy The View"
Nightmare Anatomy


Drop D - 1/2

Angel- Gtr 1 (Top)
Jake - Gtr 2 (Bottom)

x = pm.



Intro (2 Gtrs)
eb|-----------------------------|  |---------|
bb|-----------------------------|  |---------|
gb|------------------4--4--4--4-|x2|---------|
db|------------------1--1--1--1-|  |---------|
ab|-0-0-0-0-0-0-0-0-------------|  |-0-0-0-0-|
Db|-0-0-0-0-0-0-0-0-------------|  |-0-0-0-0-|
    x x x x x x x x                  x x x x



"Tied Off Quick."
(Gtr.1)
eb|---------------------------------------------------|
bb|---------------------------------------------------|
gb|---------------------------------------------------|
db|---------------------------------------------------|
ab|-9-9-9-9-9-9-9-9--7-7-7-7-7-7-7-7--5-5-5-5-5-5-5-5-|
Db|-9-9-9-9-9-9-9-9--7-7-7-7-7-7-7-7--5-5-5-5-5-5-5-5-|
      x x x x x x x    x x x x x x x    x x x x x x x

eb|---------------------------------------------------|
bb|---------------------------------------------------|
gb|---------------------------------------------------|
db|---------------------------------------------------|
ab|-0-0-0-0-7-7-7-7--9-9-9-9-9-9-9-9--7-7-7-7-7-7-7-7-|
Db|-0-0-0-0-7-7-7-7--9-9-9-9-9-9-9-9--7-7-7-7-7-7-7-7-|
      x x x   x x x    x x x x x x x    x x x x x x x

eb|----------------------------------|
bb|----------------------------------|
gb|----------------------------------|
db|----------------------------------|
ab|-5-5-5-5-5-5-5-5--7-7-7-7--7---7--|
Db|-5-5-5-5-5-5-5-5--7-7-7-7----7----|
      x x x x x x x    x x x    x


Verse "Painted Walls Melt Away."
eb|---------------------------------------------------|
bb|---------------------------------------------------|
gb|---------------------------------------------------|
db|---------------------------------------------------|
ab|-9-9-9-9-9-9-9-9--7-7-7-7-7-7-7-7--5-5-5-5-5-5-5-5-|
Db|-9-9-9-9-9-9-9-9--7-7-7-7-7-7-7-7--5-5-5-5-5-5-5-5-|
      x x x x x x x    x x x x x x x    x x x x x x x |
                                                      |
eb|---------------------------------------------------|
bb|---------------------------------------------------|
gb|-9-9-7-7-6-6------9-9-7-7-6-6------9-9-7-7-6-6-----|
db|-------------7-7--------------7-7--------------7-7-|
ab|---------------------------------------------------|
Db|---------------------------------------------------|

eb|---------------------------------------------------|
bb|---------------------------------------------------|
gb|---------------------------------------------------|
db|---------------------------------------------------|
ab|-0-0-0-0-7-7-7-7--9-9-9-9-9-9-9-9--7-7-7-7-7-7-7-7-|
Db|-0-0-0-0-7-7-7-7--9-9-9-9-9-9-9-9--7-7-7-7-7-7-7-7-|
      x x x   x x x    x x x x x x x    x x x x x x x |
eb|---------------------------------------------------|
bb|---------------------------------------------------|
gb|-6-6-----9-9------9-9-7-7-6-6------9-9-7-7-6-6-----|
db|-----7-7-----7-7--------------7-7---------------7-7|
ab|---------------------------------------------------|
Db|---------------------------------------------------|

eb|----------------------------------|
bb|----------------------------------|
gb|----------------------------------|
db|----------------------------------|
ab|-5-5-5-5-5-5-5-5--7-7-7-7--7---7--|
Db|-5-5-5-5-5-5-5-5--7-7-7-7----7----|
      x x x x x x x    x x x    x    |
eb|----------------------------------|
bb|----------------------------------|
gb|-9-9-7-7-6-6------6-6-----9-9-----|
db|-------------7-7------7-7-----7-7-|
ab|----------------------------------|
Db|----------------------------------|

Pre-Chorus
eb|---|
bb|---|
gb|---|
db|-4-|with random pick slides
ab|-1-|
Db|---|


Chorus x2
Gtr.1&2
eb|-----------------------------------------------------------------|
bb|-----------------------------------------------------------------|
gb|-----------------------------------------------------------------|
db|-0-0-0-0-0-0-0-0-0-0-0-0-0-0-0-0-5-5-5-5-5-5-5-5-5-5-5-5-5-5-5-5-|
ab|-0-0-0-0-0-0-0-0-0-0-0-0-0-0-0-0-5-5-5-5-5-5-5-5-5-5-5-5-5-5-5-5-|
Db|-0-0-0-0-0-0-0-0-0-0-0-0-0-0-0-0-5-5-5-5-5-5-5-5-5-5-5-5-5-5-5-5-|

eb|-----------------------------------------------------------------|
bb|-----------------------------------------------------------------|
gb|-----------------------------------------------------------------|
db|-9-9-9-9-9-9-9-9-9-9-9-9-9-9-9-9-7-7-7-7-7-7-7-7-7-7-7-7-7-7-7-7-|
ab|-9-9-9-9-9-9-9-9-9-9-9-9-9-9-9-9-7-7-7-7-7-7-7-7-7-7-7-7-7-7-7-7-|
Db|-9-9-9-9-9-9-9-9-9-9-9-9-9-9-9-9-7-7-7-7-7-7-7-7-7-7-7-7-7-7-7-7-|
                                                                    |
eb|-----------------------------------------------------------------|
bb|----------------7----------------------------------7-8-----7-----|
gb|----------7-------------------------------------7--------------7-|
db|-9-------------------------------9-------------------------------|
ab|-----------------------------------------------------------------|
Db|-----------------------------------------------------------------|

Repeat The Verse 2x
                                |1.--------------|2.------------|
eb|----------------------------------------------|--------------|
bb|----------------------------------------------|--------------|
gb|----------------------------------------------|--------------|
db|-----9---------7---------5---------0-------7--|-----7------7-|
ab|-9-9-9-x2--7-7-7-x2--5-5-5-x2--0-0-0---7-7-7--|-7-7-7--7-7-7-|
Db|-9-9-9-----7-7-7-----5-5-5-----0-0-0---7-7-7--|-7-7-7--7-7-7-|
    x x       x x       x x       x x     x x      x x    x x   |
eb|-------------------------------------------------------------|
bb|-------------------------------------------------------------|
gb|---11---12---11----6----11---12---11------6------------------|
db|-9----9----9-----7--7-9----9----9-----7-7---7----------------|
ab|-------------------------------------------------------------|
Db|-------------------------------------------------------------|

Play Pre Chorus + Chorus 1x

Breakdown

eb|-----------------------------------|
bb|-----------------------------------|
gb|-11-11-11-12-11-11--12-11-11-11-11-|
db|-12-12-12-12-12-12--12-12-12-12-12-|x10
ab|-----------------------------------|
Db|-----------------------------------|
                                      |
eb|-----------------------------------|
bb|-----------------------------------|
gb|-----------------------------------|
db|-9--7--5--0---0---9---7---5--0---0-|
ab|-9--7--5--0---0---9---7---5--0---0-|
Db|-9--7--5--0---0---9---7---5--0---0-|


eb|-------------|  |------------|
bb|--------8-7--|  |-------8-7--|
gb|-----------7-|  |----------7-|
db|-------------|  |------------|
ab|-------------|  |------------|
Db|-------------|  |------------|
                |x2|            |x2
eb|-------------|  |------------|
bb|-------------|  |------------|
gb|-------------|  |------------|
db|-9-9-9-------|  |-0-0-0------|
ab|-9-9-9-------|  |-0-0-0------|
Db|-9-9-9-------|  |-0-0-0------|

Cln Breakdown

eb|---------------------|---------------------|
bb|---------------------|---------------------|
gb|---7-7-7-7---7-7-7-7-|---7-7-7-7---7-7-7-7-|
db|-0-0-0-0-0-0-0-0-0-0-|-5-5-5-5-5-5-5-5-5-5-|
ab|-0-0-0-0-0-0-0-0-0-0-|-5-5-5-5-5-5-5-5-5-5-|
Db|-0-0-0-0-0-0-0-0-0-0-|-5-5-5-5-5-5-5-5-5-5-|

eb|-------------------------------------------|
bb|-------------------------------------------|
gb|--11-11-11-11-11-11-11---9-9-9-9---9-9-9-9-|
db|-9-9-9-9-9-9-9-9-9-9---7-7-7-7-7-7-7-7-7-7-|
ab|-9-9-9-9-9-9-9-9-9-9---7-7-7-7-7-7-7-7-7-7-|
Db|-9-9-9-9-9-9-9-9-9-9---7-7-7-7-7-7-7-7-7-7-|

End With Chorus 2x

eb|---|
bb|---|
gb|---|
db|-0-|
ab|-0-|
Db|-0-|





Comments


Popular Aiden tabs & chords
Elizabeth Bass Tabs
We Sleep Forever Bass Tabs
Die Romantic 4 Tabs
Last Sunrise 3 Tabs
Life I Left Behind 1 Tabs
Moment Tabs
She Will Love You 2 Tabs
There Will Be Blood Tabs
We Sleep Forever Tabs
We Sleep Forever 2 Tabs


Song lyrics



↑ Back to top | Tablatures and chords are parodies/interpretations of the original songs. You may use it for private study, scholarship, research or language learning purposes only
© 2014 AZChords.com Contact us | Privacy policy | DMCA | Add/correct tabs | Request tabs | Top 50 tabs