» » »

Aiden, Die Romantic Tabs (ver.4)

Artists:  A B C D E F G H I J K L M N O P Q R S T U V W X Y Z # 

Die Romantic Tabs (ver.4)

Aiden Tabs
Rating:
3/5 (3 votes)
Die Romantic lessons Tabs too difficult? Try these video lessons and learn fast
                ----------------------------------------------------------------------------
                             Die Romantic - Aiden
----------------------------------------------------------------------------

*please note this song has alternative tuning and it is set to Drop D a half step down*

Tuning: Db Ab Db Gb Bb Eb

guitar 1 intro
|---------------------------------------------------------|
|---------------------------------------------------------|
|---------------------------------------------------------|
|-44-xxx-44-xxx-44-xxx-44-xxx-11-xxx-11-xxx-22-xxx-22-xxx-|
|-44-xxx-44-xxx-44-xxx-44-xxx-11-xxx-11-xxx-22-xxx-22-xxx-|
|-44-xxx-44-xxx-44-xxx-44-xxx-11-xxx-11-xxx-22-xxx-22-xxx-| 2x

guitar 2 intro
|---------------------------------------------------------|
|---------------------------------------------------------|
|-99-xxx-99-xxx-77-xxx-77-xxx-66-xxx-66-xxx-77-xxx-77-xxx-| 
|-xx-----xx-----xx-----xx-----xx-----xx-----xx-----xx-----|
|-77-xxx-77-xxx-55-xxx-55-xxx-44-xxx-44-xxx-55-xxx-55-xxx-|
|---------------------------------------------------------| 2x

guitar 1 verse (pinch harmonics)
|--------------------------------------|
|--------------------------------------|
|---7-9-----6-7-----6-7-----6-7--7-6---| 
|-7-------5-------5-------5------------|
|--------------------------------------|
|--------------------------------------| 2x

guitar 2 verse
|-4-5-4-5h7p5-4---4-5--|
|---------------5------|
|----------------------| 
|----------------------|
|----------------------|
|----------------------| played many times over

guitar 1 chorus
|-------------------------------------------------------|
|-------------------------------------------------------|
|-------------------------------------------------------|
|-7777777777777-22222222222222-4444444444444-0000000000-| 
|-7777777777777-22222222222222-4444444444444-0000000000-| 1x 1st chorus
|-7777777777777-22222222222222-4444444444444-0000000000-| 2x 2nd chorus

guitar 2 i'm not sure, it sounds unclear to me...


(your last words to me "tonight's the night")
|-----------------|
|-----------------|
|-4/6-6/7-7\6-6\2-|
|-----------------|
|-----------------|
|-----------------| repeated

(I  MISS  YOU)
-------------------------------------------------------|
-------------------------------------------------------|
-------------------------------------777-----------777-|
|-44444444-444-44444444-444----------***-----------***-|
|-44444444-444-44444444-444-00000000-555--00000000-555-|
|-44444444-444-44444444-444-00000000------00000000-----|
pm********     ********     ********      ********        

Outro (both guitars)
|-------------------------|
|-------------------------|
|-------------------------|
|-444-4-444-4-444-4-444-4-|
|-444-4-444-4-444-4-444-4-|
|-444-4-444-4-444-4-444-4-|
  ***   ***   ***   ***
            
Submit corrections

comments powered by Disqus
↑ Back to top | Aiden Tabs for Die Romantic. Lyrics for acoustic guitar and electric guitar. Tablatures and chords are parodies/interpretations of the original songs. You may use it for private study, scholarship, research or language learning purposes only