» » »

Aiden, Cold December Tabs (ver.1)

Artists:  A B C D E F G H I J K L M N O P Q R S T U V W X Y Z # 

Cold December Tabs (ver.1)

Aiden Tabs
 Rating:
4.5/5 (8 votes)
Cold December lessons Tabs too difficult? Try these video lessons and learn fast
1
                Hey what's up everyone this song is from this
new band of victory records is really hot...


Album:Our Gang's Dark Oath

Tuning: Drop D (D,A,D,G,B,E)

Intro verse:

E|--------------------------|
B|--------------------------|
G|--------------------------|
D|-44444---22222---444444---|
A|-44444---22222---222222---|
D|-44444---22222------------|
pm..........................

Those nights we walk together
I couldn't sleep
Well I still remember what you wore now
It was the cold december air
the way the rain hit your hair but then...

(Here's a little chance)

E|-------------------------------|
B|-------------------------------|
G|-------------------------------|
D|-44----4444---22222---444444---|
A|-44----4444---22222---222222---|
D|-44----4444---22222------------|
pm.      ......................

I woke up from a dream I can't repair
and then realized
how far I'd finally come
Well the damage that's been made
The hurt I've caused can never be erased
only until now
can we disappear
Now

Intro end:

E|-----------------------------|
B|-----------------------------|
G|-----------------------------|
D|--4444---22222---444444----4~|
A|--4444---22222---222222----4~|
D|--4444---22222-------------4~|
pm.......................

Verse:

Guitar 1/2

E|----------------------------------|
B|----------------------------------|
G|----------------------------------|
D|-4~---44---------22---------------|
A|-4~---44--(x6)---22---(x6)--------|
D|-4~---44---------22---------------|
pm.    ..         ..

I walked alone some nights
thinking of the time...

we laid your soul to rest
This disillusion comforts me
I wait for you sometimes
but always feel my life
is flashing way to fast
We never had a second chance

Guitar 1

E|-----------------------------|
B|-----------------------------|
G|-----------------------------|
D|---44---------22-------------|
A|---44--(x6)---22---(x6)------|
D|---44---------22-------------|

Guitar 2

E|----------------------------------------|
B|----------------------------------------|
G|-----11---13--14-------------11-11------|
D|-----x-----x---x--(x2)--------x-x--(x6)-|
A|-----9----11--12--------------9-9-------|
D|----------------------------------------|

So when was my place branded
faithless lost again
So when was my place branded
faithless lost my friend


Chorus:

Guitar 1/2

E|----------------------------|
B|----------------------------|
G|----------------------------|
D|-4444xx2222--4444-6666------|
A|-4444xx2222--2222-4444------|
D|-4444xx2222-----------------|


I will never trust and
label death as my only defense
I will never trust again
I will never trust and
label death as my only defense
I will never love again


Guitar 1/2

E|------------------|
B|------------------|
G|------------------|
D|---777777-999999--|
A|---555555-777777--|
D|------------------|


I still remember when your...


Bridge:

(Play this faster)

Guitar 1/2

E|----------------------|
B|----------------------|
G|----------------------|
D|---888888888868-------|
A|---666666666666-------|
D|----------------------|
pm.      ......


You were found!
and we were bored!
let's live!
one more time!


Pre Verse:

Guitar 1/2

E|------------------|
B|------------------|
G|------------------|
D|----999999-777777-|
A|----777777-555555-|
D|------------------|


(Here's a little pause 'til he said)

I've made my way this life's
taken so much time to manufac...

Guitar 1/2

E|-----------------------------|
B|-----------------------------|
G|-----------------------------|
D|---44---------22-------------|
A|---44--(x6)---22---(x6)------|
D|---44---------22-------------|
pm.  ..         ..

...ture grace
I feel the darkness fall
I can remember times when so much
Love and hate made something more than
Haste
It made me push you more


Guitar 1

E|-----------------------------|
B|-----------------------------|
G|-----------------------------|
D|---44---------22-------------|
A|---44--(x6)---22---(x6)------|
D|---44---------22-------------|

Guitar 2

E|----------------------------------------|
B|----------------------------------------|
G|-----11---13--14-------------11-11------|
D|-----x-----x---x--(x2)--------x-x--(x6)-|
A|-----9----11--12--------------9-9-------|
D|----------------------------------------|

So when are we supposed
to leave this place
Why you not me
So when were we supposed
to climb on top of grace


Pre chorus 2:

Guitar 1/2

E|------------------------|
B|------------------------|
G|------------------------|
D|---777777-999999-----9~-|
A|---555555-777777-----7~-|
D|------------------------|


and your dead eyes
Hands I Cry

Chorus:

Guitar 1/2

E|----------------------------|
B|----------------------------|
G|----------------------------|
D|-4444xx2222--4444-6666------|
A|-4444xx2222--2222-4444------|
D|-4444xx2222-----------------|


I will never trust and
label death as my only defense
I will never trust again
I will never trust and
label death as my only defense
I will never love again

Guitar 1/2

E|----------------------------|
B|----------------------------|
G|----------------------------|
D|-4444xx2222--4444-6666------|
A|-4444xx2222--2222-4444------|
D|-4444xx2222-----------------|


I will never trust and
label death as my only defense
I will never trust again
I will never trust and
label death as my only defense
I will never love again


E|-----------------------------------|
B|-----------------------------------|
G|-----------------------------------|
D|--4~~~------------------------4~~~-|
A---4~~~------------------------4~~~-|
D|--4~~~------------------------4~~~-|

....I still remember that cold december....

That's it... It's pretty easy...
This is a song only for a fans of Aiden and metalcore music...
            
Submit corrections

comments powered by Disqus
↑ Back to top | Aiden Tabs for Cold December. Lyrics for acoustic guitar and electric guitar. 1 Tablatures and chords are parodies/interpretations of the original songs. You may use it for private study, scholarship, research or language learning purposes only