» » »

Breathless Tabs (ver.1)

Artists:  A B C D E F G H I J K L M N O P Q R S T U V W X Y Z # 

Breathless Tabs (ver.1)

Aiden
Rating:
3/5 (8 votes)

Hard to play? Try these video lessons and learn fast.
                Aiden
Nightmare Anatomy

Im not entirely sure if it's right and i've done my best. it's enough to get you
started with though.i havent worked out the other guitar part yet, so this only
works for one guitar. i will work out the second part and add it a.s.a.p.This is
my first ever tab and i'm only 14. any corrections are welcome.


intro [0:00-0:24]
|----------------------|    i haven't written
|----------------------|    the strumming pattern
|--8--10--8--8---------|    but it's pretty
|--9--11--9--9---------| x4 easy to work out if
|--9--11--9--9---------|    you listen
|--7--9---7--0---------|


verse [0:25-0:40]
|------------------------------------------------------|
|------------------------------------------------------|
|------10-----11-----10-----11-------------------------|
|--8-8----8-8----8-8----8-8--------11/13-----11/13-----| x2
|------------------------------9-9-------9-9-----------|
|------------------------------------------------------|


bridge [0:41-0:45]
|----------------------|
|----------------------|
|----------------------|
|-------8-9-11-9-8-----|
|--9-11------------9---|
|----------------------|


chorus [0:45-1:00]
|--------------------------------------------------|
|--------------------------------------------------|
|-11-10-8----11-10-8----11-10-8----11-13-11-10-----|
|---------11---------11---------11-----------------|
|--------------------------------------------------|
|--------------------------------------------------|


verse 2 [1:00-1:16]
|------------------------------------------------------|
|------------------------------------------------------|
|------10-----11-----10-----11-------------------------|
|--8-8----8-8----8-8----8-8--------11/13-----11/13-----| x2
|------------------------------9-9-------9-9-----------|
|------------------------------------------------------|


bridge [1:16-1:20]
|----------------------|
|----------------------|
|----------------------|
|-------8-9-11-9-8-----|
|--9-11------------9---|
|----------------------|


chorus 2 [1:21-1:52]
|--------------------------------------------------|
|--------------------------------------------------|
|-11-10-8----11-10-8----11-10-8----11-13-11-10-----|
|---------11---------11---------11-----------------| x2
|--------------------------------------------------|
|--------------------------------------------------|


break [1:53-2:23]
|--7--/--|     |-------------------|      again, i haven't
|--7--/--|     |-------------------|      written the strumming
|--8--/--|     |-------------------|      pattern but you can   
|--9--/--|     |-2--4--6--9--4-----|x2    work it out if
|--9--/--|     |-2--4--6--9--4-----|      you listen to the
|--7--/--|     |-0--2--4--7--2-----|      song
              pm .  .  .  


chorus 3 [2:27-2:38]
|--/----------------------------------------|
|--/----------------------------------------|
|--/--11-10-8----11-10-8----11-13-11-10-----|
|--/----------11---------11-----------------|
|--/----------------------------------------|
|--/----------------------------------------|


chorus 4 [2:39-2:55]
|--------------------------------------------------|
|--------------------------------------------------|
|-11-10-8----11-10-8----11-10-8----11-13-11-10-----|
|---------11---------11---------11-----------------|
|--------------------------------------------------|
|--------------------------------------------------|


outro [2:55-3:10]
|-------------------------------|       
|-------------------------------|         listen to the
|--8--10--8--8--8--10--8--7-----|         song for the
|--9--11--9--9--9--11--9--8-----|         strumming pattern
|--9--11--9--9--9--11--9--8-----|       
|--7--9---7--0--7--9---7--6-----|


==========END==========
            
Hard to play? Try these video lessons and learn fast. | Correct




comments powered by Disqus
↑ Back to top | Tablatures and chords are parodies/interpretations of the original songs. You may use it for private study, scholarship, research or language learning purposes only