» » »

Aguilera Christina, The Voice Within Tabs (ver.1)

Artists:  A B C D E F G H I J K L M N O P Q R S T U V W X Y Z # 

The Voice Within Tabs (ver.1)

Aguilera Christina Tabs
Rating:
0/5 (0 votes)
The Voice Within lessons Tabs too difficult? Try these video lessons and learn fast
                E|--------3----------3--1--0--||  Repeat this once
B|--------3----------3--------||  For the entire
G|-----0----------0-----------||  Intro.
D|----------------------------||
A|----------------------------||
E|---3---------3--------------||



E|--------3--------3--------3--------3---||  Repeat this 
B|--------3--------3--------3--------3---||  as many times
G|-----0---------0-------0--------0------||  as needed for
D|---------------------------------------||  the rest of the
A|--------------------3------------------||  song (yes, even
E|--3--------3-----------------0---------||  the chorus) i'm 


Well, that's all I hope you enjoyed it while it lasted,
Gina
            

comments powered by Disqus
↑ Back to top | Aguilera Christina Tabs for The Voice Within. Lyrics for acoustic guitar and electric guitar. Tablatures and chords are parodies/interpretations of the original songs. You may use it for private study, scholarship, research or language learning purposes only