» » »

Aguilera Christina, Fighter Tabs (ver.1)

Artists:  A B C D E F G H I J K L M N O P Q R S T U V W X Y Z # 

Fighter Tabs (ver.1)

Aguilera Christina Tabs
 Rating:
4/5 (4 votes)
Fighter lessons Tabs too difficult? Try these video lessons and learn fast
1
                Christina Aguilera - Fighter                           

The song sounds as if it is drop D. This is the main riff in Drop D.

E||-----------------------|-----------------------||
B||-----------------------|-----------------------||
G||-----------------------|-----------------------||
D||--2--2--2--2--5--------|--0--0--0--3--2--------||
A||--2--2--2--2--5--------|--0--0--0--3--2--------||
D||--2--2--2--2--5--------|--0--0--0--3--2--------||

I've written out the song in standard tuning, but it wouldn't be hard
to move it to drop D.

The song moves between E aeolian, E phrygian and E harmonic minor so
you could use these scales to improvise your own leads. If you want to
keep it simple the E minor pentatonic would work also.

My Rig:
Squire Telecaster
Marshall 50 watt amp
Morley wah wah

My Favourite Bands:
Primus
Clutch
No Doubt



Strings arranged for guitar
                                             
E||----------7----5----|--------------------|
B||----------8----7----|----------5----4----|
G||--------------------|----------5----4----|
D||--------------------|--------------------|
A||--------------------|--------------------|
E||--------------------|--------------------|


                                        
--------------------|------------------|
--------------------|------------------|
----------5----4----|------------------|
----------7----5----|------------------|
--------------------|------------------|
--------------------|------------------|


                                              
--7-------------------|----------------------|
--8--------10----8----|--8--------7----8--7--|
-----------11----9----|--9--------7----9--7--|
----------------------|----------------------|
----------------------|----------------------|
----------------------|----------------------|


                                         
--------------------|-------------------|
--5------------3----|-------------------|
--5------------4----|--4----------------|
--------------------|--5----------------|
--------------------|-------------------|
--------------------|-------------------|


Main riff                                             4x
|------------------------|-------------------------||
|------------------------|-------------------------||
|*-----------------------|--7--7--7--10--9--------*||
|*--2--2--2--2--5--------|--7--7--7--10--9--------*||
|---2--2--2--2--5--------|--5--5--5--8---7---------||
|---0--0--0--0--3--------|-------------------------||


Prechorus                                                     
--------------------------|--------------------------|
--------------------------|--------------------------|
--2--2--2--2--2--2--2--2--|--2--2--2--2--2--2--2--2--|
--2--2--2--2--2--2--2--2--|--2--2--2--2--2--2--2--2--|
--0--0--0--0--0--0--0--0--|--0--0--0--0--0--0--0--0--|
--------------------------|--------------------------|


                                                      
--------------------------|--------------------------|
--------------------------|--------------------------|
--2--2--2--2--2--2--2--2--|--2--2--2--2--2--2--2--2--|
--2--2--2--2--2--2--2--2--|--2--2--2--2--2--2--2--2--|
--0--0--0--0--0--0--0--0--|--0--0--0--0--0--0--0--0--|
--------------------------|--------------------------|


                                                
-----------------------|-----------------------|
-----------------------|-----------------------|
-----------------------|-----------------------|
--5--5--5--5--2--------|--5--5--5--5--2--------|
--5--5--5--5--2--------|--5--5--5--5--2--------|
--3--3--3--3--0--------|--3--3--3--3--0--------|


                                                      
--------------------------|--------------------------|
--------------------------|--------------------------|
--2--2--2--2--2--2--2--2--|--2--2--2--2--2--2--2--4--|
--2--2--2--2--2--2--2--2--|--2--2--2--2--2--2--2--4--|
--0--0--0--0--0--0--0--0--|--0--0--0--0--0--0--0--2--|
--------------------------|--------------------------|


                                                   
--------------------------|-----------------------|
--------------------------|-----------------------|
--5--5--5--5--7--7--7--7--|--4--4--4--4--4--------|
--5--5--5--5--7--7--7--7--|--4--4--4--4--4--------|
--3--3--3--3--5--5--5--5--|--2--2--2--2--2--------|
--------------------------|-----------------------|


 				Chorus                                                     
------------------------||---------------------------|
------------------------||---------------------------|
--5--5--5--5--2----4----||*--------------------------|
--5--5--5--5--2----4----||*--2--2--2--2--4--4--4--4--|
--3--3--3--3--0----2----||---2--2--2--2--4--4--4--4--|
------------------------||---0--0--0--0--2--2--2--2--|


--------------------------------------------------------------
                                                      
--------------------------|--------------------------|
--------------------------|--------------------------|
--------------2--2--2--4--|--5--5--5--5--4--4--4--4--|
--5--5--5--5--2--2--2--4--|--5--5--5--5--4--4--4--4--|
--5--5--5--5--0--0--0--2--|--3--3--3--3--2--2--2--2--|
--3--3--3--3--------------|--------------------------|


                           2x                         
---------------------------||------------------------|
---------------------------||------------------------|
--2--2--------------------*||*-----------------------|
--2--2--5--4--2--2--2--2--*||*--2--2--2--2--5--------|
--0--0--5--4--2--2--2--2---||---2--2--2--2--5--------|
--------3--2--0--0--0--0---||---0--0--0--0--3--------|


                         6x                           
-------------------------||--------------------------|
-------------------------||--------------------------|
--7--7--7--10--9--------*||--2--2--2--2--2--2--2--2--|
--7--7--7--10--9--------*||--2--2--2--2--2--2--2--2--|
--5--5--5--8---7---------||--0--0--0--0--0--0--0--0--|
-------------------------||--------------------------|


                                                      
--------------------------|--------------------------|
--------------------------|--------------------------|
--2--2--2--2--2--2--2--2--|--2--2--2--2--2--2--2--2--|
--2--2--2--2--2--2--2--2--|--2--2--2--2--2--2--2--2--|
--0--0--0--0--0--0--0--0--|--0--0--0--0--0--0--0--0--|
--------------------------|--------------------------|


                                                   
--------------------------|-----------------------|
--------------------------|-----------------------|
--2--2--2--2--2--2--2--2--|-----------------------|
--2--2--2--2--2--2--2--2--|--5--5--5--5--2--------|
--0--0--0--0--0--0--0--0--|--5--5--5--5--2--------|
--------------------------|--3--3--3--3--0--------|


                                                   
-----------------------|--------------------------|
-----------------------|--------------------------|
-----------------------|--2--2--2--2--2--2--2--2--|
--5--5--5--5--2--------|--2--2--2--2--2--2--2--2--|
--5--5--5--5--2--------|--0--0--0--0--0--0--0--0--|
--3--3--3--3--0--------|--------------------------|


                                                      
--------------------------|--------------------------|
--------------------------|--------------------------|
--2--2--2--2--2--2--2--4--|--5--5--5--5--7--7--7--7--|
--2--2--2--2--2--2--2--4--|--5--5--5--5--7--7--7--7--|
--0--0--0--0--0--0--0--2--|--3--3--3--3--5--5--5--5--|
--------------------------|--------------------------|


                                                 
-----------------------|------------------------|
-----------------------|------------------------|
--4--4--4--4--4--------|--5--5--5--5--2----4----|
--4--4--4--4--4--------|--5--5--5--5--2----4----|
--2--2--2--2--2--------|--3--3--3--3--0----2----|
-----------------------|------------------------|


                                                        
|---------------------------|--------------------------|
|---------------------------|--------------------------|
|*--------------------------|--------------2--2--2--4--|
|*--2--2--2--2--4--4--4--4--|--5--5--5--5--2--2--2--4--|
|---2--2--2--2--4--4--4--4--|--5--5--5--5--0--0--0--2--|
|---0--0--0--0--2--2--2--2--|--3--3--3--3--------------|


                                                        
--------------------------|---------------------------||
--------------------------|---------------------------||
--5--5--5--5--4--4--4--4--|--2--2--------------------*||
--5--5--5--5--4--4--4--4--|--2--2--5--4--2--2--2--2--*||
--3--3--3--3--2--2--2--2--|--0--0--5--4--2--2--2--2---||
--------------------------|--------3--2--0--0--0--0---||

Bridge
Strings arranged for guitar  
                                                
--7------5-7-5-----------|-----------------------|
---------------8----7----|--5------5-7-5----4----|
-------------------------|-----------------------|
-------------------------|-----------------------|
-------------------------|-----------------------|
-------------------------|-----------------------|


                                            
------------------5----|--7----------------|
--5------5-7-8---------|-------------------|
-----------------------|-------------------|
-----------------------|-------------------|
-----------------------|-------------------|
-----------------------|-------------------|


                                          
--------------------|--7--------8--------|
--8------------7----|--------------------|
--------------------|--------------------|
--------------------|--------------------|
--------------------|--------------------|
--------------------|--------------------|


                                                 
--7----------------||---------------------------|
-------------------||---------------------------|
-------------------||*--------------------------|
-------------------||*--2--2--2--2--4--4--4--4--|
-------------------||---2--2--2--2--4--4--4--4--|
-------------------||---0--0--0--0--2--2--2--2--|


                                                      
--------------------------|--------------------------|
--------------------------|--------------------------|
--------------2--2--2--4--|--5--5--5--5--4--4--4--4--|
--5--5--5--5--2--2--2--4--|--5--5--5--5--4--4--4--4--|
--5--5--5--5--0--0--0--2--|--3--3--3--3--2--2--2--2--|
--3--3--3--3--------------|--------------------------|


                           6x
---------------------------||
---------------------------||
--2--2--------------------*||
--2--2--5--4--2--2--2--2--*||
--0--0--5--4--2--2--2--2---||
--------3--2--0--0--0--0---||


--------------------------------------------------------------
            
Submit corrections

comments powered by Disqus
↑ Back to top | Aguilera Christina Tabs for Fighter. Lyrics for acoustic guitar and electric guitar. 1 Tablatures and chords are parodies/interpretations of the original songs. You may use it for private study, scholarship, research or language learning purposes only