» » »

Agua De Annique, Beautiful One Tabs (ver.1)

Artists:  A B C D E F G H I J K L M N O P Q R S T U V W X Y Z # 

Beautiful One Tabs (ver.1)

Agua De Annique Tabs
 Rating:
4/5 (5 votes)
Beautiful One lessons Tabs too difficult? Try these video lessons and learn fast
                Capo on 3rd fret (tabs and chords are relative to capo)

|----------------------|----------------------|----------------------|----------------------|  
|---0----0----0----0---|---0----0----0----0---|---0----0----0----0---|---0----0----0----0---|
|-5----5----5----5-----|-5----5----5----5-----|-4----4----4---4------|-4----4----4----4-----| 
|----------------------|----------------------|----------------------|----------------------|  
|----------------------|----------------------|----------------------|----------------------|   
|----------------------|----------------------|----------------------|----------------------|x3  

|----------------------|----------------------|----------------------|----------------------|
|---0----0----0----0---|---0----0----0----0---|----------------------|----------------------|
|-2----2----2----2-----|-2----2----0----0-----|---0----0----0----0---|---0----0----0----0---|
|----------------------|----------------------|-2----2----2----2-----|-2----2----2----2-----|
|----------------------|----------------------|----------------------|----------------------|
|----------------------|----------------------|----------------------|----------------------|

Repeat everything, but the first part is x2 instead of 3

|-0--0--0--0--0--5--5--5---2--2--2--2--2--3--3--3---|
|-5--5--5--5--5--5--5--5---0--0--0--0--0--0--0--0---|
|-0--0--0--0--0--0--0--0---2--2--2--2--2--2--2--2---|  listen to the song
|-5--5--5--5--5--5--5--5---2--2--2--2--2--2--2--2---|  to know how to strum
|-0--0--0--0--0--0--0--0---0--0--0--0--0--0--0--0---|
|---------------------------------------------------|x2 
         Your face shines in my eyes....

Am            Em
I wish I never left
Am         Em
  Beautiful one
Am                  Em
  You shine like the sun 
 D             C 
I wish I never left  
  D           C  
Before I have said
            Am
You are the one
            Em
You are the one


|----------------------|----------------------|----------------------|----------------------|  
|---0----0----0----0---|---0----0----0----0---|---0----0----0----0---|---0----0----0----0---|
|-5----5----5----5-----|-5----5----5----5-----|-4----4----4---4------|-4----4----4----4-----| 
|----------------------|----------------------|----------------------|----------------------|  
|----------------------|----------------------|----------------------|----------------------|   
|----------------------|----------------------|----------------------|----------------------|x2  
               Your sun will come and go...

|----------------------|----------------------|----------------------|----------------------|
|---0----0----0----0---|---0----0----0----0---|----------------------|----------------------|
|-2----2----2----2-----|-2----2----0----0-----|---0----0----0----0---|---0----0----0----0---|
|----------------------|----------------------|-2----2----2----2-----|-2----2----2----2-----|
|----------------------|----------------------|----------------------|----------------------|
|----------------------|----------------------|----------------------|----------------------|x4


Am              Em
                   Lalala....
Am              Em
ah haha.............
D                  C
... I wish I never left
D              C
 Before I have said 
            Am
You are the one
            Em
You are the one

|-0--0--0--0--0--5--5--5---2--2--2--2--2--3--3--3---|
|-5--5--5--5--5--5--5--5---0--0--0--0--0--0--0--0---|
|-0--0--0--0--0--0--0--0---2--2--2--2--2--2--2--2---|  
|-5--5--5--5--5--5--5--5---2--2--2--2--2--2--2--2---|  
|-0--0--0--0--0--0--0--0---0--0--0--0--0--0--0--0---|
|---------------------------------------------------|

Am          Em
            
Submit corrections

comments powered by Disqus
↑ Back to top | Agua De Annique Tabs for Beautiful One. Lyrics for acoustic guitar and electric guitar. Tablatures and chords are parodies/interpretations of the original songs. You may use it for private study, scholarship, research or language learning purposes only