» » »

Agnostic Front, Uncle Sam Bass tabs (ver.1)

Artists:  A B C D E F G H I J K L M N O P Q R S T U V W X Y Z # 

Uncle Sam Bass tabs (ver.1)

Agnostic Front Tabs
 Rating:
4/5 (4 votes)
Uncle Sam lessons Tabs too difficult? Try these video lessons and learn fast
                Symbols:
r    ring note
    keep playing that note

Intro
G------------
D------------
A--2-------0-
E----23-23---

Verse (4x)
G-----------------
D-----------------
A--2>-3>-00-55----
E--------------0>-

Chorus
G-----------------------------
D-----------------------------
A--0>-33----0>-2>-0>-33----2>-
E--------33-------------33----

- play Verse
- play Chorus

Fill
A--2>--

Bridge 
     (2x)	             (3x)
G---------------|------------------------------
D-----32-32-----|-----220r-----442r----220r----
A--2>-------5>--|--0>-------2>------0>------3>-
E---------------|------------------------------

Outro
G-------------------
D-------------------
A--2>-3>-00--55-----
E---------------0---
            
Submit corrections

comments powered by Disqus
↑ Back to top | Agnostic Front Bass for Uncle Sam. Lyrics for acoustic guitar and electric guitar. Tablatures and chords are parodies/interpretations of the original songs. You may use it for private study, scholarship, research or language learning purposes only