» » »

Police State Bass tabs (ver.1)

Artists:  A B C D E F G H I J K L M N O P Q R S T U V W X Y Z # 

Police State Bass tabs (ver.1)

Agnostic Front
Rating:
0/5 (0 votes)

Hard to play? Try these video lessons and learn fast.
                Symbols:
   repeat note

Intro
G----|
D----|
A-0>-|
E----|

Verse
"New York police state" (4x)
G-----------|
D-----------|
A-0000-33-2-|
E-----------|

"You know we hate you"
G----3x-----|----|
D-----------|----|
A-2222-55-0-|-2>-|
E-----------|----|

"Giuliani f*** you" (2x)
G-----------------------|
D-0-222-0-222-0-222-----|
A-------------------0-2-|
E-----------------------|

- repeat Verse

Solo
     4x             4x
G------2222-|------------5-5-|
D-----------|------------3-3-|
A-0-00------|-0000-33-2>-----|
E-----------|----------------|

- play "You know we hate you"-part
- play "Giuliani f*** you"-part (1x)

Ending
A---|
E-0-|
            
Hard to play? Try these video lessons and learn fast. | Correct




comments powered by Disqus
↑ Back to top | Tablatures and chords are parodies/interpretations of the original songs. You may use it for private study, scholarship, research or language learning purposes only