» » »

Out Of Reach Bass tabs (ver.1)

Artists:  A B C D E F G H I J K L M N O P Q R S T U V W X Y Z # 

Out Of Reach Bass tabs (ver.1)

Agnostic Front
Rating:
0/5 (0 votes)

Hard to play? Try these video lessons and learn fast.
                Symbols:
r   ring note
   keep playing that note

Verse (2x)
G------3x-------|------------
D--2>-----------|------------
A-----3----3----|--2>--------
E-------33---33-|-----1>-3>--

Chorus (2x)
G--------------------
D--------7>----3>----
A--3>-5>----1>----3>-
E--------------------

- play Verse
- play Chorus

Bridge (4x)
G------------
D------------
A------5>-3>-
E--0>--------

- play Verse
- play Chorus

Outro 
G-----------------------------------
D-----------------------------------
A-----5>-3>----5>-3>---3>---3>---3r-
E--0>-------0>-------3----3----3----
            
Hard to play? Try these video lessons and learn fast. | Correct




comments powered by Disqus
↑ Back to top | Tablatures and chords are parodies/interpretations of the original songs. You may use it for private study, scholarship, research or language learning purposes only