» » »

Agnostic Front, No Mercy Bass tabs (ver.1)

Artists:  A B C D E F G H I J K L M N O P Q R S T U V W X Y Z # 

No Mercy Bass tabs (ver.1)

Agnostic Front Tabs
 Rating:
4/5 (4 votes)
No Mercy lessons Tabs too difficult? Try these video lessons and learn fast
                Symbols:
r     ring note
     keep playing note
/     slide up

Intro
G-------------------
D--2-2/3-2-0r-------
A-------------------
E-------------------

Verse (6x)
G-------------------
D-------------------
A--2>-44-55---------
E-----------0>------

Chorus (2x)
G------------------------------
D--22-333-000-222--------------
A-----------------2220r-2220r--
E------------------------------

- play Verse
- play Chorus

Bridge
G--------------------
D-----------------2>-
A--3>-5>----3>-5>----
E--------5>----------

- play Chorus
- play Verse (4x)
- play Chorus (1x)

Outro
G---------------------------
D-22-333-000-222------------
A----------------2220r-2-2r-
E---------------------------
            
Submit corrections

comments powered by Disqus
↑ Back to top | Agnostic Front Bass for No Mercy. Lyrics for acoustic guitar and electric guitar. Tablatures and chords are parodies/interpretations of the original songs. You may use it for private study, scholarship, research or language learning purposes only