» » »

My Life Tabs (ver.1)

Artists:  A B C D E F G H I J K L M N O P Q R S T U V W X Y Z # 

My Life Tabs (ver.1)

Agnostic Front
Rating:
0/5 (0 votes)

Hard to play? Try these video lessons and learn fast.
                intro
|------------------------|
|------------------------|
|-----------7------------|   < x2
|79997999799-79997999799-|
|-----------------------7|
|------------------------|

main riff
|---------------------|      |----------------------------------|
|---------------------|      |----------------------------------|
|----777---99997779999| < x4 |9999777999999997779999------------|
|777777777799997779999|      |999977799999999777999979997999799-|
|777755577777775557777|      |7777555777777775557777-----------7|
|5555---555-----------|      |----------------------------------|

repeat main riff then...
solo
|--------------------------------------------------------------------|
|-9-9-9-9-12-9------7-7-7-7-10-7-----9-9-9-9-12-9------14-14-14-12-14|
|--------------11-9--------------9-7--------------11-9---------------|
|--------------------------------------------------------------------|
|--------------------------------------------------------------------|
|--------------------------------------------------------------------|
repeat last little bit of the solo twice

main riff
|---------------------|      |----------------------------------|
|---------------------|      |----------------------------------|
|----777---99997779999| < x4 |9999777999999997779999------------|
|777777777799997779999|      |999977799999999777999979997999799-|
|777755577777775557777|      |7777555777777775557777-----------7|
|5555---555-----------|      |----------------------------------|

|----------------------------------|
|----------------------------------|
|9999777999999997779999------------|
|999977799999999777999979997999799-|
|7777555777777775557777-----------7|
|----------------------------------|

|------------------------|
|------------------------|
|-----------7------------|   < x2
|99999999999-99999999999-|
|-----------------------7|
|------------------------|


thats it hope you find it useful
see ya next time.......
            
Hard to play? Try these video lessons and learn fast. | Correct




comments powered by Disqus
↑ Back to top | Tablatures and chords are parodies/interpretations of the original songs. You may use it for private study, scholarship, research or language learning purposes only