» » »

Agnostic Front, Love To Be Hated Bass tabs (ver.1)

Artists:  A B C D E F G H I J K L M N O P Q R S T U V W X Y Z # 

Love To Be Hated Bass tabs (ver.1)

Agnostic Front Tabs
 Rating:
4/5 (4 votes)
Love To Be Hated lessons Tabs too difficult? Try these video lessons and learn fast
1
                Symbols:
r   ring note
   keep playing note

Intro/Chorus
G--3x---|----|----2x----
D-------|----|----------
A-------|----|-5r-3>-5>-
E-5r-3>-|-5>-|----------

Verse (2x)
G------------------
D------------------
A-55-333-666-5>----
E---------------5>-

- play Intro/Chorus
- play Verse
- play Intro/Chorus
- play Verse

Bridge 
G---3x----|----------
D---------|----------
A----3-5>-|-2>-3>-5>-
E-0>------|----------

- play Intro/Chorus fading out
            
Submit corrections

comments powered by Disqus
↑ Back to top | Agnostic Front Bass for Love To Be Hated. Lyrics for acoustic guitar and electric guitar. 1 Tablatures and chords are parodies/interpretations of the original songs. You may use it for private study, scholarship, research or language learning purposes only