» » »

Last Warning Bass tabs (ver.1)

Artists:  A B C D E F G H I J K L M N O P Q R S T U V W X Y Z # 

Last Warning Bass tabs (ver.1)

Agnostic Front
Rating:
0/5 (0 votes)

Hard to play? Try these video lessons and learn fast.
                G|-----------------|-----------------|-----------------|-----------5-----|
D|-----------------|-----------4-5-7-|-----------------|-------------5---|
A|-0-0-0-0-2-2-2-2-|-3-3-3---5-------|-0-0-0-0-2-2-2-2-|-3-3-3---5-------|
E|-----------------|-----------------|-----------------|-----------------|

G|-----------------|-----------------|-----------------|-----------------|
D|-----------------|-----------4-5-7-|-----------------|-----------4\\7--|
A|-0-0-0-0-2-2-2-2-|-3-3-3---5-------|-0-0-0-0-2-2-2-2-|-3-3-3---5-------|
E|-----------------|-----------------|-----------------|-----------------|

G|-----------------|-----------------|-----------------|-----------------|
D|-----------------|-----------4-5-7-|-----------------|-----------------|
A|-0-0-0-0-2-2-2-2-|-3-3-3---5-------|-0-0-0-0-2-2-2-2-|-3-3-3---5-------|
E|-----------------|-----------------|-----------------|-----------------|

G|-----------------|-----------------|
D|-----------------|-----------------|
A|-----------------|-3-5-3-5-3-5-3-5-|
E|-3-5-3-5-3-5-3-5-|-----------------|

G|-----------------|-----------------|-----------------|-----------------|
D|-----------------|-----------4-5-7-|-----------------|-----------4\\7--|
A|-0-0-0-0-2-2-2-2-|-3-3-3---5-------|-0-0-0-0-2-2-2-2-|-3-3-3---5-------|
E|-----------------|-----------------|-----------------|-----------------|

G|-----------------|-----------------|-----------------|-----------------|
D|-----------------|-----------4-5-7-|-----------------|-----------------|
A|-0-0-0-0-2-2-2-2-|-3-3-3---5-------|-0-0-0-0-2-2-2-2-|-3-3-3---5-------|
E|-----------------|-----------------|-----------------|-----------------|

G|-----------------|-----------------|
D|-----------------|-----------------|
A|-----------------|-3-5-3-5-3-5-3-5-|
E|-3-5-3-5-3-5-3-5-|-----------------|
            
Hard to play? Try these video lessons and learn fast. | Correct




comments powered by Disqus
↑ Back to top | Tablatures and chords are parodies/interpretations of the original songs. You may use it for private study, scholarship, research or language learning purposes only