» » »

I Wanna Know Bass tabs (ver.1)

Artists:  A B C D E F G H I J K L M N O P Q R S T U V W X Y Z # 

I Wanna Know Bass tabs (ver.1)

Agnostic Front
Rating:
0/5 (0 votes)

Hard to play? Try these video lessons and learn fast.
                Intro
G----|----|
D----|----|
A-0r-|-0>-|
E----|----|

Verse (2x)
G-----------------------------------------|
D-----------------------------------------|
A--0000-33----0000-5-3----0000-33----0000-|
E----------33----------33---------33------|

Chorus
G-------------------------------------|
D--------------------------------2222-|
A-5555-3333-5555-3-----5555-3333------|
E------------------3-5----------------|

- play Verse (only 1x)
- play Chorus

Bridge
G-----------2x--------------|----2x-----|----|--------------|
D------------------------2>-|-----------|----|--------------|
A-5-33-5--5-33-5--5-33-5----|--3>-5>----|-0>-|--3r-5r-3r-5>-|
E---------------------------|--------5>-|----|--------------|

- play Verse (2x)
- play Chorus
- play Bridge

Outro
G----------------|
D----------------|
A-0000-33----0---|
E---------33-----|
            
Hard to play? Try these video lessons and learn fast. | Correct




comments powered by Disqus
↑ Back to top | Tablatures and chords are parodies/interpretations of the original songs. You may use it for private study, scholarship, research or language learning purposes only