» » »

Agnostic Front, Fascist Attitude Tabs (ver.1)

Artists:  A B C D E F G H I J K L M N O P Q R S T U V W X Y Z # 

Fascist Attitude Tabs (ver.1)

Agnostic Front Tabs
Rating:
0/5 (0 votes)
Hard to play? Try these video lessons and learn fast.
                


MAIN RIFF:4 TIMES
e|------------------------------------------|
B|------------------------------------------|
G|-------------7-7-7------------------------|
D|--2-2-2-2-2--7-7-7--5-5-5-5---------------|
A|--2-2-2-2-2--5-5-5--5-5-5-5---------------|
E|--0-0-0-0-0---------3-3-3-3---------------|

CHOURUS: 2 TIMES
e|------------------------------------|
B|------------------------------------|
G|-------------------------7-7---5-5--|
D|--9---5-5---7-7----9-----7-7---5-5--|
A|--9---5-5---7-7----9-----5-5---3-3--|
E|--7---3-3---5-5----7----------------|

4 TIMES
e|-----------------------------------------|
B|-----------------------------------------|
G|-------------7-7-7-----------------------|
D|--2-2-2-2-2--7-7-7--5-5-5-5--------------|
A|--2-2-2-2-2--5-5-5--5-5-5-5--------------|
E|--0-0-0-0-0---------3-3-3-3--------------|

2 TIMES
e|------------------------------------|
B|------------------------------------|
G|-------------------------7-7---5-5--|
D|--9---5-5---7-7----9-----7-7---5-5--|
A|--9---5-5---7-7----9-----5-5---3-3--|
E|--7---3-3---5-5----7----------------|

SOLO: = VIBRATO
e|--------------------------------------------------------------------------
B|---~9~10~11~12~----~9~10~11~12~-------------------------------------------
G|--------------------------------------------------------------------------
D|--------------------------------------------------------------------------
A|--------------------------------------------------------------------------
E|--------------------------------------------------------------------------

12 TIMES
e|------------------------------------------|
B|------------------------------------------|
G|-------------7-7-7------------------------|
D|--2-2-2-2-2--7-7-7--5-5-5-5---------------|
A|--2-2-2-2-2--5-5-5--5-5-5-5---------------|
E|--0-0-0-0-0---------3-3-3-3---------------|

2 TIMES
e|------------------------------------|
B|------------------------------------|                            
G|-------------------------7-7---5-5--|
D|--9---5-5---7-7----9-----7-7---5-5--|
A|--9---5-5---7-7----9-----5-5---3-3--|
E|--7---3-3---5-5----7----------------|

2 TIMES
e|------------------------------------------|
B|------------------------------------------|
G|-------------7-7-7------------------------|
D|--2-2-2-2-2--7-7-7--5-5-5-5---------------|
A|--2-2-2-2-2--5-5-5--5-5-5-5---------------|
E|--0-0-0-0-0---------3-3-3-3---------------|
            

comments powered by Disqus
↑ Back to top | Agnostic Front Tabs for Fascist Attitude. Lyrics for acoustic guitar and electric guitar. Tablatures and chords are parodies/interpretations of the original songs. You may use it for private study, scholarship, research or language learning purposes only