» » »

Agnostic Front, Blind Justice Tabs (ver.1)

Artists:  A B C D E F G H I J K L M N O P Q R S T U V W X Y Z # 

Blind Justice Tabs (ver.1)

Agnostic Front Tabs
Rating:
0/5 (0 votes)
Blind Justice lessons Tabs too difficult? Try these video lessons and learn fast
                

e|--------------------------------------------------------------------------|
B|--------------------------------------------------------------------------|
G|--------------------------------------------------------------------------|
D|--------------------------------------------------------------------------|
A|---7-7-7--10--12---7-7-7-7--12--10----------------------------------------|
E|---5-5-5---8--10---5-5-5-5--10---8----------------------------------------|

e|--------------------------------------------------------------------------|
B|--------------------------------------------------------------------------|
G|--------------------------------------------------------------------------|
D|---9--7--9--7-------------------------------------------------------------|
A|---7--5--7--5-------------------------------------------------------------|
E|--------------------------------------------------------------------------|

  Am I the one ...  Then repeat from beginning

e|--------------------------------------------------------------------------|
B|--------------------------------------------------------------------------|
G|--------------------------------------------------------------------------|
D|---7--9--5--7-------------------------------------------------------------|
A|---5--7--3--5-------------------------------------------------------------|
E|--------------------------------------------------------------------------|

There's no justice, it's just us...
            

comments powered by Disqus
↑ Back to top | Agnostic Front Tabs for Blind Justice. Lyrics for acoustic guitar and electric guitar. Tablatures and chords are parodies/interpretations of the original songs. You may use it for private study, scholarship, research or language learning purposes only