>
 >
Addiction

Addiction Guitar Tabs

Agnostic Front - Addiction chords, tabs, tablatures, lyrics

Guitar lessons | Add/correct | Request | Top 50 tabs Artists:  A B C D E F G H I J K L M N O P Q R S T U V W X Y Z 0-9

Addiction Guitar Tabs – Agnostic Front

CD, Sheet music, Poster

Do you like Addiction? Share with your friends now
Tabs
Agnostic Front


Intro
eb|----------------------------------------------------------------|
Bb|----------------------------------------------------------------|
Gb|----------------------------------------------------------------|
Db|--8-8-8-8-8-8--8/9-9--8-8-8-8--6/8-8-8-8-8-8-8--8/9-9--8--8--8--|
Ab|--6-6-6-6-6-6--6/7-7--6-6-6-6--4/6-6-6-6-6-6-6--6/7-7--6--6--6--|
Eb|----------------------------------------------------------------|
Pm     . . . . .            . . .         . . . .

eb|------------------------------------------------------------------------|
Bb|------------------------------------------------------------------------|
Gb|------------------------------------------------------------------------|
Db|--8-8-8-8-8-8--8/9-9--8-8-8-8--6/8-8-8-8-8-8-8--8/9-9--11-11-11--6/9-9--| x2
Ab|--6-6-6-6-6-6--6/7-7--6-6-6-6--4/6-6-6-6-6-6-6--6/7-7---9--9--9--4/7-7--|
Eb|------------------------------------------------------------------------|
Pm     . . . . .            . . .         . . . .


Verse (“I look in your eyes.....”)
eb|------------------------------------------------------------------------|
Bb|------------------------------------------------------------------------|
Gb|------------------------------------------------------------------------|
Db|--8-8-8-8-8-8--8/9-9--8-8-8-8--6/8-8-8-8-8-8-8--8/9-9--11-11-11--6/9-9--| 
Ab|--6-6-6-6-6-6--6/7-7--6-6-6-6--4/6-6-6-6-6-6-6--6/7-7---9--9--9--4/7-7--|
Eb|------------------------------------------------------------------------|
Pm     . . . . .            . . .         . . . .

eb|----------------------------------------------------------------|
Bb|----------------------------------------------------------------|
Gb|----------------------------------------------------------------|
Db|--8-8-8-8-8-8--8/9-9--8-8-8-8--6/8-8-8-8-8-8-8--8/9-9--8--8--8--| 
Ab|--6-6-6-6-6-6--6/7-7--6-6-6-6--4/6-6-6-6-6-6-6--6/7-7--6--6--6--|
Eb|----------------------------------------------------------------|
Pm     . . . . .            . . .         . . . .


Pre-Chorus (“Don’t fuck up your life.....”)
eb|---------------------------------------------------------------------------|
Bb|---------------------------------------------------------------------------|
Gb|---------------------------------------------------------------------------|
Db|--4-4-4-4-4-4--4/5-5---4-4-4-4-4-4--4/5-5--4-4-4-4-4-4--4-5-5-7---7-5-4-4--|
Ab|--4-4-4-4-4-4--4/5-5---4-4-4-4-4-4--4/5-5--4-4-4-4-4-4--4-5-5-7---7-5-4-4--|
Eb|--2-2-2-2-2-2--2/3-3---2-2-2-2-2-2--2/3-3--2-2-2-2-2-2--2-3-3-5---5-3-2-2--|
Pm     . . . . .             . . . . .           . . . . .                      

eb|---------------------------------------------------------------------------|
Bb|---------------------------------------------------------------------------|
Gb|---------------------------------------------------------------------------|
Db|--4-4-4-4-4-4--4/5-5---4-4-4-4-4-4--4/5-5--4-4-4-4-4-4--4-5-5-7-7-7-5-4-4--|
Ab|--4-4-4-4-4-4--4/5-5---4-4-4-4-4-4--4/5-5--4-4-4-4-4-4--4-5-5-7-7-7-5-4-4--|
Eb|--2-2-2-2-2-2--2/3-3---2-2-2-2-2-2--2/3-3--2-2-2-2-2-2--2-3-3-5-5-5-3-2-2--|
Pm     . . . . .             . . . . .           . . . . .        . . .              


Chorus (“Now you’re running out of time.....”)
eb|-------------------------------------|     |---------------------------------|
Bb|-------------------------------------|     |---------------------------------|
Gb|-------------------------------------|     |---------------------------------|
Db|--8-8-8-8-8-8-8--4-4-4-4-4-4--7-7-7--| x3  |--8-8-8-8-8-8-8---------4-4-4-4--|
Ab|--6-6-6-6-6-6-6--2-2-2-2-2-2--5-5-5--|     |--6-6-6-6-6-6-6---------4-4-4-4--|
Eb|-------------------------------------|     |------------------4^-4--2-2-2-2--|
Pm.    . . .                                 . . .               . . . .   

Verse (“Time to open your eyes.....”)

Pre-Chorus (“Don’t fuck up your life.....”)

Chorus (“Now you’re running out of time.....”)


Breakdown pt. 1
eb|-----------------------------------------------------------------------------------|
Bb|-----------------------------------------------------------------------------------|
Gb|------------------9-8-6--8-6-4--6-4-3--4-3-2----4~--6~--3~--8~--15v~---4~--6~--3~--|
Db|--9~--8~--9-8-6---x-x-x--x-x-x--x-x-x--x-x-x----x---x---x---x----x-----x---x---x---|
Ab|--9~--8~--9-8-6---7-6-4--6-4-2--4-2-1--2-1-0----2~--4~--1~--6~--13v~---2~--4~--1~--|
Eb|--7~--6~--7-6-4--------------------------------------------------------------------|

eb|---------------------------------------------------|
Bb|---------------------------------------------------|
Gb|--9-8-6--8-6-4--6-4-3--4-3-2----4~--6~--3~---------|
Db|--x-x-x--x-x-x--x-x-x--x-x-x----x---x---x----------|
Ab|--7-6-4--6-4-2--4-2-1--2-1-0----2~--4~--1~---7*v~--|
Eb|---------------------------------------------------|


Breakdown pt. 2 (“Save yourself, from this addiction.....”)
eb|--------------------------|-------------1st--------------|--------2nd--------|
Bb|--------------------------|------------------------------|-------------------|
Gb|--------------------------|------------------------------|-------------------|
Db|--8-8-8--8-8-8--8-8-8--8--|--8/9-9-9--9-9-9--7-7-7--7/8--|--4-4-4-4-7-7-7-7--| x2
Ab|--6-6-6--6-6-6--6-6-6--6--|--6/7-7-7--7-7-7--5-5-5--5/6--|--4-4-4-4-5-5-5-5--|
Eb|--------------------------|------------------------------|-------------------|
Pm.    . .     . .    . .           . .    . .    . .

eb|--------------------------|-------------1st--------------|--------2nd--------------|
Bb|--------------------------|------------------------------|-------------------------|
Gb|--------------------------|------------------------------|-------------------------|
Db|--8-8-8--8-8-8--8-8-8--8--|--8/9-9-9--9-9-9--7-7-7--7/8--|--4-4-4-4-7-7-7-7--4--8--|
Ab|--6-6-6--6-6-6--6-6-6--6--|--6/7-7-7--7-7-7--5-5-5--5/6--|--4-4-4-4-5-5-5-5--2--6--|
Eb|--------------------------|------------------------------|-------------------------|
Pm.    . .     . .    . .           . .    . .    . .



Pm... = palm mute
    x = mute string
    0 = open string
    h = hammer on
    p = pull off
    ~ = let ring
    / = slide
    ^ = bend
    >>> = pickslide
    * = pinched harmonic
    T = tremolo picking





Comments


Popular Agnostic Front tabs & chords
Dedication Bass Tabs
Everybody's A Critic Bass Tabs
Friend Or Foe Bass Tabs
Politician Bass Tabs
Riot, Riot Upstart 1 Bass Tabs
So Pure To Me Bass Tabs
The Eliminator Bass Tabs
Pauly The Dog Chords
My Life Tabs
Riot, Riot Upstart Tabs


Song lyrics



↑ Back to top | Tablatures and chords are parodies/interpretations of the original songs. You may use it for private study, scholarship, research or language learning purposes only
© 2014 AZChords.com Contact us | Privacy policy | DMCA | Add/correct tabs | Request tabs | Top 50 tabs