» » »

A Global Threat, Money, Lies And Real Estate Tabs (ver.1)

Artists:  A B C D E F G H I J K L M N O P Q R S T U V W X Y Z # 

Money, Lies And Real Estate Tabs (ver.1)

A Global Threat Tabs
 Rating:
4/5 (4 votes)
Money, Lies And Real Estate lessons Tabs too difficult? Try these video lessons and learn fast
                Standard Tuning

Intro + Verse

|-------------------|
|-------------------|
|-9------------5----|
|-9--10--5--3--5----|  X 2
|-7--10--5--3--3----|
|-----8--3--1-------|

On the verse just alternate pick these a few times to the song.

Chorus

|-------------------------------------------------|
|-------------------------------------------------|
|-10-10-10-10-10-9-9-9-9--------------------------|
|------------------------12-12-12-12-10-10-10-10--|
|-------------------------------------------------|
|-------------------------------------------------|

  PM|========|
|------------------|
|------------------|
|------------------|
|-5-5-5-5-5-5------|
|-5-5-5-5-5-5------|
|-3-3-3-3-3-3------|
    
Bridge

|----------------------------------|
|----------------------------------|
|-------------------7-7-7-7-7-7-7--|
|-7-7-7-7-8-8-10-10-7-7-7-7-7-7-7--|
|-7-7-7-7-8-8-10-10-5-5-5-5-5-5-5--|
|-5-5-5-5-6-6-8--8-----------------|

|-----------------------|
|-----------------------|
|-10-10-10-10-----------|
|-10-10-10-10-8-8-8-8---|
|-8--8--8--8--8-8-8-8---|
|-------------6-6-6-6---|



Final Chorus

|------------------------------------|
|------------------------------------|
|----------5-5-5-5----------5-5-5-5--|
|-3-3-3-3--5-5-5-5-5-5-5-5--5-5-5-5--|
|-3-3-3-3--3-3-3-3-5-5-5-5--3-3-3-3--|
|-1-1-1-1----------3-3-3-3-----------|






or instant message me @ nuclear allan
long live houston punks
            
Submit corrections

comments powered by Disqus
↑ Back to top | A Global Threat Tabs for Money, Lies And Real Estate. Lyrics for acoustic guitar and electric guitar. Tablatures and chords are parodies/interpretations of the original songs. You may use it for private study, scholarship, research or language learning purposes only