» » »

A Global Threat, Here We Are Tabs (ver.2)

Artists:  A B C D E F G H I J K L M N O P Q R S T U V W X Y Z # 

Here We Are Tabs (ver.2)

A Global Threat Tabs
Rating:
0/5 (0 votes)
Here We Are lessons Tabs too difficult? Try these video lessons and learn fast
                BAND: A GLOBAL THREAT

INTRO/VERSE: (8X)

E|------------------------------|
B|------------------------------|
G|---------777------------------|
D|---777---777---777---888------|
A|---777---555---777---888------|
E|---555---------555---666------|

----------------------------------------------------------------------------

CHORUS: (2X)
                      "HERE WE ARE! TOO HARD! TOO FAST!"
E|------------------------------|
B|------------------------------|
G|--10-10-8-10-10-10--777-999---|
D|--10-10-8-10-10-10--777-999---|
A|--8--8--6-8--8--8---555-777---|
E|------------------------------|

*PLAY INTRO/VERSE ONCE....THEN PLAY CHORUS....THEN INTRO/VERSE*
                  *(CHECK SONG FOR TIMING)*

----------------------------------------------------------------------------

BRIDGE:
          "And I'm just the cynic to tell you..."

    *(PART A.) + (PART B.)(3X) // Then play (Part A.) + (PART C)*

    (PART A.)            (PART B.)       (PART C.)
E|--------------------|----------------|-------------|
B|--------------------|----------------|-------------|
G|--10-10-8-10-10-10--|----------999---|-------------|
D|--10-10-8-10-10-10--|--101010--999---|--10-9-8-7---|
A|--8--8--6-8--8--8---|--101010--777---|--10-9-8-7---|
E|--------------------|--8-8-8---------|--8--7-6-5---|

----------------------------------------------------------------------------

...AFTER BRIDGE...SOLOING BEGINS....

INTRO/VERSE: (4X)

CHORUS: (2X)

BRIDGE: (1X)

INTRO/VERSE: (8X)

CHORUS: (2X)

BRIDGE: (1X)                                         D--7--|
                                                     A--7--|
END ON (PART C)...AND THEN END ON THE A POWER CHORD  E--5--|

"..YOU SOUND LIKE A F****N' BROKEN RECORD!!"

**LISTEN TO SONG FOR TIMING AND ORDER....SORRY IF ITS A BIT CONFUSING...I WAS TRYING TO 
IT....BUT ITS ALL THERE...JUST PLAY IT IN ORDER AND YOU WILL BE A-OK...**
            
Submit corrections

comments powered by Disqus
↑ Back to top | A Global Threat Tabs for Here We Are. Lyrics for acoustic guitar and electric guitar. Tablatures and chords are parodies/interpretations of the original songs. You may use it for private study, scholarship, research or language learning purposes only