» » »

Free Will Tabs (ver.1)

Artists:  A B C D E F G H I J K L M N O P Q R S T U V W X Y Z # 

Free Will Tabs (ver.1)

A Global Threat
Rating:
0/5 (0 votes)

Hard to play? Try these video lessons and learn fast.
                A Global Threat
Where The Sun Never Sets


Riff A

1:-----------------------------|
2:-----------------------------|
3:------------------6----------|
4:--4-4-4-4-4--6-6--6--6-------|
5:--4-4-4-4-4--6-6--4--6-------|
6:--2-2-2-2-2--4-4-----4-------|

Riff B

1:--------------------|
2:--------------------|
3:--6-6-------8-------|
4:--6-6--6-6--8-------|
5:--4-4--6-6--6-------|
6:-------4-4----------|

Riff C

1:--------------------------------------------------------|
2:--------------------------------------------------------|
3:--3-3-3-3-3--4-4-4-4-4--6-6-6-6-6--4-3-3-3-3------------|
4:--3-3-3-3-3--4-4-4-4-4--6-6-6-6-6--4-3-3-3-3------------|
5:--1-1-1-1-1--2-2-2-2-2--4-4-4-4-4--2-1-1-1-1------------|
6:--------------------------------------------------------|

Riff D

1:------------------------------------------|
2:------------------------------------------|
3:--4-4-4-4-4--6-6-6-6-6--4-3-3-3-3---------|
4:--4-4-4-4-4--6-6-6-6-6--4-3-3-3-3---------|
5:--2-2-2-2-2--4-4-4-4-4--2-1-1-1-1---------|
6:------------------------------------------|

Riff E

1:----------------------------------------------|
2:----------------------------------------------|
3:--4-4-4-4-4--6-6-6-6-6--8-----8---------------|
4:--4-4-4-4-4--6-6-6-6-6--8--8--8--8------------|
5:--2-2-2-2-2--4-4-4-4-4--6--8--6--8------------|
6:---------------------------6-----6------------|

INTRO/VERSE
Riff A X3
Riff B X1

CHORUS
Riff C X1
Riff D X2
Riff E X1
            
Hard to play? Try these video lessons and learn fast. | Correct




comments powered by Disqus
↑ Back to top | Tablatures and chords are parodies/interpretations of the original songs. You may use it for private study, scholarship, research or language learning purposes only