» » »

False Patriot Bass tabs (ver.1)

Artists:  A B C D E F G H I J K L M N O P Q R S T U V W X Y Z # 

False Patriot Bass tabs (ver.1)

A Global Threat
Rating:
0/5 (0 votes)

Hard to play? Try these video lessons and learn fast.
                play the first two fast, as fast as you can

E-66----------66-------66---------------
A----88-66-88----88-66----88-66-88-66-88
D---------------------------------------
G---------------------------------------      
                                              both riffs 2X
E-66----------66---------
A----88-66555----88-66555
D------------------------
G------------------------

slow part(slow down)

E-66---------- 
A----886665544
D-------------  2X
G-------------

the fist riff comes up after the slow part
            
Hard to play? Try these video lessons and learn fast. | Correct




comments powered by Disqus
↑ Back to top | Tablatures and chords are parodies/interpretations of the original songs. You may use it for private study, scholarship, research or language learning purposes only