» » »

Don't Look Tabs (ver.1)

Artists:  A B C D E F G H I J K L M N O P Q R S T U V W X Y Z # 

Don't Look Tabs (ver.1)

A Global Threat
Rating:
5/5 (1 vote)

Hard to play? Try these video lessons and learn fast.
                Standard Tuning

Verse
|-------------------------------|
|-------------------------------|
|--------7-8-----7-7-7-7-7-7-7-7|
|-5-5----7-8--8--7-7-7-7-7-7-7-7|
|-5-5----5-6--8--5-5-5-5-5-5-5-5|
|-3-3---------6-----------------|

Chorus
|---------------------------------------------|
|---------------------------------------------|
|-5-5-3-5-5--5-7-7-5-7-7--7-8-8-7-8-8--8-10~--|
|-5-5-3-5-5--5-7-7-5-7-7--7-8-8-7-8-8--8-10~--|
|-3-3-1-3-3--3-5-5-3-5-5--5-6-6-5-6-6--6--8~--|
|---------------------------------------------|

Breakdown
|----------------------|
|----------------------|
|---9-----9-----9------|
|-8-9-8-7-9-7-5-9-5-3~-|
|-8-7-8-7-7-7-5-7-5-3~-|
|-6---6-5---5-3---3-1~-|



Order

Verse      X6
Chorus     X1
Verse      X4
Chorus     X1
Pick Slide
Breakdown  X4

or instant message me @ nuclear allan
long live houston punks
            
Hard to play? Try these video lessons and learn fast. | Correct




comments powered by Disqus
↑ Back to top | Tablatures and chords are parodies/interpretations of the original songs. You may use it for private study, scholarship, research or language learning purposes only