» » »

A Global Threat, Channel Tabs (ver.2)

Artists:  A B C D E F G H I J K L M N O P Q R S T U V W X Y Z # 

Channel Tabs (ver.2)

A Global Threat Tabs
 Rating:
4/5 (4 votes)
Channel  lessons Tabs too difficult? Try these video lessons and learn fast
                (4)
e-------------------------|
B-------------------------|
G-----------9999----------| 3 times
D-6666-4444-9999-9999-----|
A-6666-4444-7777-9999-----|
E-4444-2222------7777-----|


e--------------------|
B--------------------|
G---------9----------| 1 time
D-6---4---9---9------|
A-6---4---7---9------|
E-4---2-------7------|

e------------------------------------------------------------|
B------------------------------------------------------------|
G------99----------------------------9999-8888---------------| 4 times
D-4444-99-99-11-11-11-11-11-11-11-11-9999-8888-66666666------|
A-4444-77-99-11-11-11-11-11-11-11-11-7777-6666-66666666------|
E-2222----77-9--9--9--9--9--9--9--9------------44444444------|

e--------------------------------------------------------|
B--------------------------------------------------------|
G-------------------------------------9-9----------------| 2 times
D-444444444444-999999999999-66666666--9-9--999999999999--|
A-444444444444-999999999999-66666666--7-7--999999999999--|
E-222222222222-777777777777-44444444-------777777777777--|


e------------------------------------------------------------|
B------------------------------------------------------------|
G------99----------------------------9999-8888---------------| 4 times
D-4444-99-99-11-11-11-11-11-11-11-11-9999-8888-66666666------|
A-4444-77-99-11-11-11-11-11-11-11-11-7777-6666-66666666------|
E-2222----77-9--9--9--9--9--9--9--9------------44444444------|

e--------------------------------------------------------|
B--------------------------------------------------------|
G-------------------------------------9-9----------------| 2 times
D-444444444444-999999999999-66666666--9-9--999999999999--|
A-444444444444-999999999999-66666666--7-7--999999999999--|
E-222222222222-777777777777-44444444-------777777777777--|

e------------------------------------|
B------------------------------------|
G-99999------------------------------| 4 times
D-99999-9--66666666-44444444---------|
A-77777-9--66666666-44444444---------|
E-------7--44444444-22222222---------|

e-------------------------|
B-------------------------|
G-----------9999----------| 3 times
D-6666-4444-9999-9999-----|
A-6666-4444-7777-9999-----|
E-4444-2222------7777-----|


e--------------------|
B--------------------|
G---------9----------| 1 time
D-6---4---9---9------|
A-6---4---7---9------|
E-4---2-------7------|
            
Submit corrections

comments powered by Disqus
↑ Back to top | A Global Threat Tabs for Channel. Lyrics for acoustic guitar and electric guitar. Tablatures and chords are parodies/interpretations of the original songs. You may use it for private study, scholarship, research or language learning purposes only