» » »

Cardinal Sin Tabs (ver.1)

Artists:  A B C D E F G H I J K L M N O P Q R S T U V W X Y Z # 

Cardinal Sin Tabs (ver.1)

A Global Threat
Rating:
1/5 (1 vote)

Tabs too difficult? Try these video lessons and learn fast.
                -------------------------------------------------------------------------------
-------------------------------------------------------------------------------

Tuning: standard

I might as well put the bass intro in here since it plays solo in the beginning

bass intro

G|------------------------------------------------------------------------|
D|------------------------------------------------------------------------|
A|--------------------------------------/7-7-7----------------------------|
E|-4-4-4-2-0---4-4-4-2-0---2-2-0-2-2-0----------7-7-7---------------------|(2x)

Guitar Verses  (figure out exact rhythm by listening to song)
  (Ab)     (Ab minor)  (F#)       (E)
e|-4----------4---------2----------0-----------------------------------------|
B|-4----------4---------2----------0-----------------------------------------|
G|-5--(6x)----4--(6x)---3--(6x)----1--(6x)-----------------------------------|
D|-6----------6---------4----------2-----------------------------------------|
A|-6----------6---------4----------2-----------------------------------------|
E|-4----------4---------2----------0-----------------------------------------|

Interlude  ("So tell me, no truth obscured....")

e|-------------0-----------------|
B|-------------0-----------------|
G|-4-----------1-----------------|
D|-4--4--------2-----------------|
A|-2--4-(5x)---2---(6x)----------|
E|----2--------0-----------------|(3x)

e|----------------------------------|
B|----------------------------------|
G|-4--------------------------------|
D|-4-4-------2--------4-------------|
A|-2-4-(5x)--2-(3x)---4-(3x)--------|
E|---2-------0--------2-------------|

Chorus   ("No!  Cardinal Sin")

e|----------------------------------------|
B|----------------------------------------|
G|---------6------------------3-4---------|
D|-2-------6-(3x)--6-6--4-6---3-4---------|
A|-2-(3x)--4-------6-6--4-6---1-2---------|
E|-0---------------4-4--2-4---------------|

e|-------------------------------------------|
B|-------------------------------------------|
G|-------------------------------------------|
D|-2------4----------6-------4---------------|
A|-2-(3x)-4-(3x)-----6-(3x)--4-(3x)----------|
E|-0------2----------4-------2---------------|

e|----------------------------------------|
B|----------------------------------------|
G|---------6------------------3-4---------|
D|-2-------6-(3x)--6-6--4-6---3-4---------|
A|-2-(3x)--4-------6-6--4-6---1-2---------|
E|-0---------------4-4--2-4---------------|

e|----------------------------------------|
B|----------------------------------------|
G|----------------------------------------|
D|-2------4---------6-------4-------------|
A|-2-(3x)-4-(3X)----6-(3x)--4-(3x)--------|
E|-0------2---------4-------2-------------|


thats mostly it, except for the solo, which isn't hard to figure out.  I may make 
tab that includes the solo.  During the solo, use the chord progressions from the interlude 
chorus.
            
Tabs too difficult? Try these video lessons and learn fast.




comments powered by Disqus
↑ Back to top | Tablatures and chords are parodies/interpretations of the original songs. You may use it for private study, scholarship, research or language learning purposes only