» » »

Pipeline Bass tabs (ver.1)

Artists:  A B C D E F G H I J K L M N O P Q R S T U V W X Y Z # 

Pipeline Bass tabs (ver.1)

Agent Orange
Rating:
0/5 (0 votes)

Hard to play? Try these video lessons and learn fast.
                G-------------------------------------------------|
D-------------------------------------------------|
A-------------------------------------------------|
E-00-33-00-33-00-33-00-33-00-33-00-33-00-33-00-33-|

G-------------------------------------------------|
D-------------------------------------------------|
A-------------------------------------------------|
E-00-33-00-33-00-33-00-33-00-33-00-33-00-33-00-33-|

G-------------------------------------------------|
D-------------------------------------------------|
A-00-33-00-33-00-33-00-33-00-33-00-33-00-33-00-33-|
E-------------------------------------------------|

G-------------------------------------------------|
D-------------------------------------------------|
A-2-2--3-3--2-2--3-3--2--2--2--2--2--2--2--0------|
E-------------------------------------------------|

Again
G-------------------------------------------------|
D-------------------------------------------------|
A-------------------------------------------------|
E-00-33-00-33-00-33-00-33-00-33-00-33-00-33-00-33-|

G-------------------------------------------------|
D-------------------------------------------------|
A-00-33-00-33-00-33-00-33-00-33-00-33-00-33-00-33-|
E-------------------------------------------------|

G------------------------------------------|
D------------------------------------------|
A-2-2--3-3--2-2--3-3--2--2--2--2--2--2--2--|
E------------------------------------------|

Bridge part
G---------------------------------------------------------------------|
D---------------------------------------------------------------------|
A-7-7-7-7-7-7-7-7-7-5-5-5-5-5-5-5-5-----------------------------------|
E-----------------------------------5-5-5-5-5-5-5-5-3-3-3-3-3-3-3-3-3-|

G-------------------------------------------------|
D-------------------------------------------------|
A-------------------------------------------------|
E-00-33-00-33-00-33-00-33-00-33-00-33-00-33-00-33-|

G-------------------------------------------------|
D-------------------------------------------------|
A-------------------------------------------------|
E-00-33-00-33-00-33-00-33-00-33-00-33-00-33-00-33-|

G-------------------------------------------------|
D-------------------------------------------------|
A-00-33-00-33-00-33-00-33-00-33-00-33-00-33-00-33-|
E-------------------------------------------------|

G-------------------------------------------------|
D-------------------------------------------------|
A-2-2--3-3--2-2--3-3--2--2--2--2--2--2--2--0------|
E-------------------------------------------------|

Break for drums

Come back in at 1:54 seconds
G-------------------------------------------------|
D-------------------------------------------------|
A-------------------------------------------------|
E-00-33-00-33-00-33-00-33-00-33-00-33-00-33-00-33-|

G-------------------------------------------------|
D-------------------------------------------------|
A-------------------------------------------------|
E-00-33-00-33-00-33-00-33-00-33-00-33-00-33-00-33-|

G-------------------------------------------------|
D-------------------------------------------------|
A-00-33-00-33-00-33-00-33-00-33-00-33-00-33-00-33-|
E-------------------------------------------------|

G-------------------------------------------------|
D-------------------------------------------------|
A-2-2--3-3--2-2--3-3--2--2--2--2--2--2--2--0------|
E-------------------------------------------------|

Again
G-------------------------------------------------|
D-------------------------------------------------|
A-------------------------------------------------|
E-00-33-00-33-00-33-00-33-00-33-00-33-00-33-00-33-|

G-------------------------------------------------|
D-------------------------------------------------|
A-00-33-00-33-00-33-00-33-00-33-00-33-00-33-00-33-|
E-------------------------------------------------|

G------------------------------------------|
D------------------------------------------|
A-2-2--3-3--2-2--3-3--2--2--2--2--2--2--2--|
E------------------------------------------|

Bridge part
G---------------------------------------------------------------------|
D---------------------------------------------------------------------|
A-7-7-7-7-7-7-7-7-7-5-5-5-5-5-5-5-5-----------------------------------|
E-----------------------------------5-5-5-5-5-5-5-5-3-3-3-3-3-3-3-3-3-|

G-------------------------------------------------|
D-------------------------------------------------|
A-------------------------------------------------|
E-00-33-00-33-00-33-00-33-00-33-00-33-00-33-00-33-|

G-------------------------------------------------|
D-------------------------------------------------|
A-------------------------------------------------|
E-00-33-00-33-00-33-00-33-00-33-00-33-00-33-00-33-|

G-------------------------------------------------|
D-------------------------------------------------|
A-00-33-00-33-00-33-00-33-00-33-00-33-00-33-00-33-|
E-------------------------------------------------|

G-------------------------------------------------|------|
D-------------------------------------------------|------|
A-2-2--3-3--2-2--3-3--2--2--2--2--2--2--2--0------|------|
E-------------------------------------------------|-0----|
            
Hard to play? Try these video lessons and learn fast. | Correct




comments powered by Disqus
↑ Back to top | Tablatures and chords are parodies/interpretations of the original songs. You may use it for private study, scholarship, research or language learning purposes only