» » »

Stick Tabs (ver.1)

Artists:  A B C D E F G H I J K L M N O P Q R S T U V W X Y Z # 

Stick Tabs (ver.1)

Agent Bulldogg
Rating:
0/5 (0 votes)

Hard to play? Try these video lessons and learn fast.
                Stick! by:Agent Bulldogg.

Bass riff:
G|-----------------|
D|-----------------|
A|--2--0-----------|
E|--------3--2--0--|

Verse:
E|-----------------------------|
B|-----------------------------|
G|-----------------------------|
D|-----------------------2-2-2-|
A|-2-2-2-2-2-2-2-2-2-2-2-0-0-0-|
E|-0-0-0-0-0-0-0-0-0-0-0-------|

Chorus:
E|-------------------------------------------------------------------------|
B|-------------------------------------------------------------------------|
G|-------------------------------------------------------------------------|
D|-----------2-2-2-2--2-2------------2-2-2-2--2-2--6-6-6-6-6-6------2----4-|
A|-2--2-2-2--0-0-0-0--0-0--2--2-2-2--0-0-0-0--0-0--4-4-4-4-4-4-4----0----2-|
E|-0--0-0-0----------------0--0-0-0----------------------------2-----------|

Lead:
E|--------5--7b--7b--5--7--|
B|--5--7-------------------|
G|-------------------------|
D|-------------------------|
A|-------------------------|
E|-------------------------|

Finish the song off with a E power chord.
            
Hard to play? Try these video lessons and learn fast. | Correct




comments powered by Disqus
↑ Back to top | Tablatures and chords are parodies/interpretations of the original songs. You may use it for private study, scholarship, research or language learning purposes only