» » »

Ronny Ohman Tabs (ver.1)

Artists:  A B C D E F G H I J K L M N O P Q R S T U V W X Y Z # 

Ronny Ohman Tabs (ver.1)

Agent Bulldogg
Rating:
0/5 (0 votes)

Hard to play? Try these video lessons and learn fast.
                Ronny Ohman by:Agent Bulldogg.

Intro riff: x2
E|---|-------------------------------------------------|
B|---|-------------------3-----------------------------|
G|---|----4-----------------2--------------------------|
D|-2-|-4-----4-----4--0--------0--------5--------------|
A|-0-|-2--------2--------------------5-----5--------4--|
E|---|-------------------------------3--------3--2--2--|
   \
Second time.

Verse:
E|------------------------------------|
B|------------------------------------|
G|------------------------------------|
D|-4-4-------2-2-------4-4--2-2-------|
A|-2-2--5-5--0-0--5-5--2-2--0-0--5-5--|
E|------3-3-------3-3------------3-3--|

Chorus:
E|--------------------------|-----------------|
B|-----------3--------------|-----------------|
G|-----4-----2--------------|-----------------|
D|-----4-----0-----5-----4--|-4-4-4-4-4-4-4-4-|
A|-----2-----------5-----4--|-4-4-4-4-4-4-4-4-|
E|-----------------3-----2--|-2-2-2-2-2-2-2-2-|
  x2                         Second time.

Bridge:
E|-----------------|--------------------------------------------------|
B|-----------------|--------------------------------------------------|
G|-----------2---4-|--------------------------2-2-2-2-2-2-4-4-4-4-4-4-|
D|---4---5---2---4-|--4-4-4-4-4-4-5-5-5-5-5-5-2-2-2-2-2-2-4-4-4-4-4-4-|
A|---4---5---0---2-|--4-4-4-4-4-4-5-5-5-5-5-5-0-0-0-0-0-0-2-2-2-2-2-2-|
E|---2---3---------|--2-2-2-2-2-2-3-3-3-3-3-3-------------------------|
 x2                 x2
E|-----------------------------------------------|
B|-----------------------------------------------|
G|-----------------2-2-2-2-2-2-2-2-4-4--4-4--4-4-|
D|-5-5-5-5-5-5-5-5-2-2-2-2-2-2-2-2-4-4--4-4--4-4-|
A|-5-5-5-5-5-5-5-5-0-0-0-0-0-0-0-0-2-2--2-2--2-2-|
E|-3-3-3-3-3-3-3-3-------------------------------|

Outro:
E|----
B|----
G|----
D|-2--
A|-2--
E|-0--
            
Hard to play? Try these video lessons and learn fast. | Correct




comments powered by Disqus
↑ Back to top | Tablatures and chords are parodies/interpretations of the original songs. You may use it for private study, scholarship, research or language learning purposes only