» » »

Agent Bulldogg, Livsstil Tabs (ver.1)

Artists:  A B C D E F G H I J K L M N O P Q R S T U V W X Y Z # 

Livsstil Tabs (ver.1)

Agent Bulldogg Tabs
Rating:
0/5 (0 votes)
Hard to play? Try these video lessons and learn fast.
                Livsstil by:Agent Bulldogg

Intro:
E|--------------------------------------------------------|---|
B|--------------------------------------------------------|-3-|
G|-2-2-4-2-2-4-2------------------------------------------|-2-|
D|-0-0-0-0-0-0-0--2-2-4-4-2-2--4-4-6-4-4-6-4--------------|-0-|
A|----------------0-0-0-0-0-0--2-2-2-2-2-2-2--5-5-7-7-5-5-|---|
E|--------------------------------------------3-3-3-3-3-3-|---|
              Repeat this riff a couple of times.          Last time.

Verse:
E|-----------------------------------------------------|
B|-3-3-3-3-3-3-----------------------------------------|
G|-2-2-2-2-2-2--2-2-2-2-2-2--4-4-4-4-4-4---------------|
D|-0-0-0-0-0-0--2-2-2-2-2-2--4-4-4-4-4-4--5-5-5-5-5-5--|
A|--------------0-0-0-0-0-0--2-2-2-2-2-2--5-5-5-5-5-5--|
E|----------------------------------------3-3-3-3-3-3--|


Chorus:
E|-------------------------------|
B|---3--------------(3)----------|
G|---2---------------4-----------|
D|---0-------4-------4-------5---|
A|-----------4-------2-------5---|
E|-----------2---------------3---|
Repeat 4 times


End riff:

E|-----------------|----|
B|---3-------------|-3--|
G|---2---2---4-----|-2--|
D|---0---2---4---5-|-0--|
A|-------0---2---5-|----|
E|---------------3-|----|
Repeat 2 times.     After last time let this ring.
            

comments powered by Disqus
↑ Back to top | Agent Bulldogg Tabs for Livsstil. Lyrics for acoustic guitar and electric guitar. Tablatures and chords are parodies/interpretations of the original songs. You may use it for private study, scholarship, research or language learning purposes only