» » »

Agent Bulldogg, Farval Tabs (ver.1)

Artists:  A B C D E F G H I J K L M N O P Q R S T U V W X Y Z # 

Farval Tabs (ver.1)

Agent Bulldogg Tabs
Rating:
0/5 (0 votes)
Farval lessons Tabs too difficult? Try these video lessons and learn fast
                Farval By:Agent Bulldogg.

Intro:
   D                                     G                 A
E|-2--2--3--2--2--2---2--2--3--2--2--2---3--3--3--3--3--3--------------------|
B|-3--3--3--3--3--3---3--3--3--3--3--3---0--0--0--0--0--0--2--2--3--3--2--2--|
G|-2--2--2--2--2--2---2--2--2--2--2--2---0--0--0--0--0--0--2--2--2--2--2--2--|
D|-0--0--0--0--0--0---0--0--0--0--0--0---0--0--0--0--0--0--2--2--2--2--2--2--|
A|---------------------------------------2--2--2--2--2--2--0--0--0--0--0--0--|
E|---------------------------------------3--3--3--3--3--3--------------------| X4

    G                 A
E|--3--3--3--3--3--3-----------|
B|--0--0--0--0--0--0-----------|
G|--0--0--0--0--0--0--2--------|
D|--0--0--0--0--0--0--2--------|
A|--2--2--2--2--2--2--0--------|
E|--3--3--3--3--3--3-----------|
Fifth time.           Let ring.

   D                               G               A
E|------------------------------------------------------------------|
B|------------------------------------------------------------------|
G|-2-2-2-2-2-2-2-2-2-2-2-2-2-2-2-2----------------------------------|
D|-0-0-0-0-0-0-0-0-0-0-0-0-0-0-0-0-----------------2-2-2-2-2-2-2-2--|
A|---------------------------------5-5-5-5-5-5-5-5-0-0-0-0-0-0-0-0--|
E|---------------------------------3-3-3-3-3-3-3-3------------------|
   . . . . . . . . . . . . . . . . . . . . . . . . . . . . . . . .

Verse:
   D                       G         A
E|---------------------------------------------------|
B|---------------------------------------------------|
G|-2-2-2-2-2-2-2-2-2-2-2-2---------------------------|
D|-0-0-0-0-0-0-0-0-0-0-0-0-----------2-2-2-2-2-2-2-2-|
A|-------------------------5-5-5-5-5-0-0-0-0-0-0-0-0-|
E|-------------------------3-3-3-3-3-----------------|
     .     .

Pre chorus:
    G      A      G      A    G         A
E|----------------------------------------------------------------------|
B|----------------------------------------------------------------------|
G|----------------------------------------------------------------------|
D|---------2-------------2--------------2-2-2-2-2-2-2-2-2-2-2-2-2-2-2-2-|
A|--5------0------5------0----5----5----0-0-0-0-0-0-0-0-0-0-0-0-0-0-0-0-|
E|--3-------------3-----------3----3------------------------------------|
                                        . . . . . . . . . . . . . . . .
Chorus:
   D                           G    A
E|----------------------------------------|
B|----------------------------------------|
G|-2-2-2--2-2-2--2-2-2--2-2-2-------------|
D|-0-0-0--0-0-0--0-0-0--0-0-0-------2-----|
A|-----------------------------5----0-----|
E|-----------------------------3----------|

Interlude:
    D    G    A
E|-----------------|
B|-----------------|
G|--2--------------|
D|--0---------2----|
A|-------5----0----|
E|-------3---------|X4  Let the chords ring

Lead:

E|-----------------3--2--0---3--2--0-|
B|-3-3-3--3-3-3----------------------|
G|--------------0--------------------|
D|-----------------------------------|
A|-----------------------------------|
E|-----------------------------------|
            
Submit corrections

comments powered by Disqus
↑ Back to top | Agent Bulldogg Tabs for Farval. Lyrics for acoustic guitar and electric guitar. Tablatures and chords are parodies/interpretations of the original songs. You may use it for private study, scholarship, research or language learning purposes only