>
 >
I Still Love You Julie

I Still Love You Julie Guitar Tabs

Against Me! - I Still Love You Julie chords, tabs, tablatures, lyrics

Guitar lessons | Add/correct | Request | Top 50 tabs Artists:  A B C D E F G H I J K L M N O P Q R S T U V W X Y Z 0-9

I Still Love You Julie Guitar Tabs – Against Me!

CD, Sheet music, Poster

Do you like I Still Love You Julie? Share with your friends now
Bass TabsBass Tabs v2ChordsChords v2Chords v3TabsUkulele
i still ove you julie
|-------------------------------------------------------|
|        AGAINST ME!  -   I still love you julie        |
|-------------------------------------------------------|



Intro 
e|-----------------------------------------------------------| 
B|-----------------------------------------------------------| 
G|-----------------------------------------------------------| 
D|-------4-4-----------4-4-----------4-4-----------4-4-------| 
A|-----5-----5-5-----5-----5-5-----5-----5-5-----5-----5-5---| 
E|-7-7-----------7-7-----------5-5-----------5-5-------------| 

e|-----------------------------------------------------------| 
B|-----------------------------------------------------------| 
G|-------4-4-----------4-4-----------6-6-----------6---------| 
D|-----5-----5-5-----5-----5-5-----7-----7-7-----7-----------| 
A|-7-7-----------7-7-----------9-9-----------7-7-------------| 
E|-----------------------------------------------------------| 

Verse 1 
"Last night, a room full, drunk..." 
e|-------------------------------------------------------------------| 
B|-------------------------------------------------------------------| 
G|-4-4-4-4-4-4-4-4-4-4-4-4-4-4-4-4-4-4-4-4-4-4-4-4-6-6-6-6-6-6-6-6---| 
D|-4-4-4-4-4-4-4-4-4-4-4-4-4-4-4-4-5-5-5-5-5-5-5-5-7-7-7-7-7-7-7-7---| 
A|-5-5-5-5-5-5-5-5-5-5-5-5-5-5-5-5-7-7-7-7-7-7-7-7-9-9-9-9-7-7-7-7---| 
E|-7-7-7-7-7-7-7-7-7-7-7-7-7-7-7-7-----------------------------------| 

Verse 2 
"No, we're not gonna call everyone on their *** tonight..." 
e|-----------------------------------------------------------| 
B|-----------------------------------------------------------| 
G|-4-4-4-4-6-6-6-6---4-4-4-4-4---4-4-4-4-4-------------------| 
D|-5-5-5-5-7-7-7-7---4-4-4-4-4---4-4-4-4-4-------------------| 
A|-5-5-5-5-7-7-7-7---5-5-5-5-5---5-5-5-5-5-------------------| 
E|-3-3-3-3-5-5-5-5---7-7-7-7-7---7-7-7-7-7-------------------| 

Pre-chorus 
"...will still save us all..." 
e|---------------------------------------------------------------------| 
B|---------------------------------------------------------------------| 
G|-444444-444444.................12-12-12-12-12-12-12-12-12-12-12-12---| 
D|-444444-444444.................12-12-12-12-12-12-12-12-12-12-12-12---| 
A|-555555-555555.................10-10-10-10-10-10-10-10-10-10-10-10---| 
E|-777777-777777.......................................................| 

Chorus 
"Still save us all..." 
e|---------------------------------------------------------------------------| 
B|---------------------------------------------------------------------------| 
G|-11-11-11-11-11-11-11-11-11-11-11-12-12-12-12-12-12-12-12-12-12-12-12-12---| 
D|-12-12-12-12-12-12-12-12-12-12-12-12-12-12-12-12-12-12-12-12-12-12-12-12---| 
A|-9--9--9--9--9--9--9--9--9--9--9--10-10-10-10-10-10-10-10-10-10-10-10-10---| 
E|---------------------------------------------------------------------------| 

It ends on this chord: 
e|------| 
B|------| 
G|-11---| 
D|-12---| 
A|-9----| 
E|-10---| 

Lyrics: 

Last night, 
a room full, drunk, 
sang along to the songs I never had 
the courage to write. 
Given the chance, I'd stay in this chorus forever, 
where everything ugly in this world is sadly beautiful 
in our desperate memories. 
No, we're not 
gonna call everyone on their *** tonight, 
even though the half of you won't even smile the next time we pass 
on the street. 
Maybe somehow 
this scam will still save us all... 

still save us all... 
will save us all. 

Then I saw you 
dancing at a punk rock show, 
and for a moment, 
we walked streets that everyone else had given up to four AM. 
'Cause promises and spray paint marking everywhere we went, 
and every direction, only going as far 
as we let it. 
There's so many 
things we try to do truthfully. 
By the time it's through with us, 
it all falls apart. 
Maybe, somehow 
this scam will still save us all...





Comments


Popular Against Me! tabs & chords
Borne On The Fm Waves Of The Heart 1 Chords
Were Breaking Up Chords
Even At Our Worst We're Still Better Than Most (The Roller) 1 Tabs
Sink Florida Sink Tabs
Borne On The Fm Waves Of The Heart Ukulele
Does It Make A Difference Ukulele
Jordans First Choice Ukulele
Unsubstantiated Rumors Are Good Enough For Me Ukulele
Wagon Wheel Ukulele
Yall Dont Want To Step To Dis Ukulele


Song lyrics



↑ Back to top | Tablatures and chords are parodies/interpretations of the original songs. You may use it for private study, scholarship, research or language learning purposes only
© 2014 AZChords.com Contact us | Privacy policy | DMCA | Add/correct tabs | Request tabs | Top 50 tabs