» » »

We Won't Submit Bass tabs (ver.1)

Artists:  A B C D E F G H I J K L M N O P Q R S T U V W X Y Z # 

We Won't Submit Bass tabs (ver.1)

Against All Authority
Rating:
0/5 (0 votes)

Hard to play? Try these video lessons and learn fast.
                Intro:
E--------------5>-------7>-------8>-]                              Order:
A----5>-----------------------------]                              Intro(1x)
D-----------------------------------]                              Chorus(4x)
G-----------------------------------]                              Verse(2x)
                                                                   Part After                              
                                                                   Verse(1x)
Verse:                                                             Chorus(4x)
E------5>------7>------8>-------3>--]                              Verse(2x)
A-----------------------------------]                              Part After Verse(1x)
D-----------------------------------]                              Chorus(4x)
G-----------------------------------]

Chrous: ("We won't submit...")
E--------------3-3-3-3-3------------]
A-5-5-5-5-5-------------------------]
D-----------------------------------]
G-----------------------------------]

("Open up your eyes...")
E--5-5-5-5-5---6-6--7-7-7-7-7---77--8-8-8-8-8---8-7---6-6-6-6-6---6-6--8-7--5-5-5-5-5--6-6---7-7-7-7-7-7---7-7--
A---------------------------------------------------------------------------------------------------------------
D---------------------------------------------------------------------------------------------------------------
G---------------------------------------------------------------------------------------------------------------

E---8-8-8-8-8---6-6--8-7---5-5-5-5-5--6-6--7-7-7-7-7---7-7---8-8-8-8-8---8-7--6-6-6-6-6----7-7--8--9--
A-----------------------------------------------------------------------------------------------------
D-----------------------------------------------------------------------------------------------------
G-----------------------------------------------------------------------------------------------------
            
Hard to play? Try these video lessons and learn fast. | Correct




comments powered by Disqus
↑ Back to top | Tablatures and chords are parodies/interpretations of the original songs. You may use it for private study, scholarship, research or language learning purposes only