» » »

Against All Authority, Wet Foot Policy Bass tabs (ver.1)

Artists:  A B C D E F G H I J K L M N O P Q R S T U V W X Y Z # 

Wet Foot Policy Bass tabs (ver.1)

Against All Authority Tabs
 Rating:
4/5 (4 votes)
Wet Foot Policy lessons Tabs too difficult? Try these video lessons and learn fast
1
                Intro:
G:-------------------------------------------: 
D:-------------------------------------------:
A:---------444-----444-----000-4-2-0---------: repeat... a lot
E:-444-2-0-----4-5-----5-4-----------444-2-0-:

then
G:----------------------------:
D:--------------6h7p6-6/4-----:
A:------------------------6/7-:
E:-444444444444---------------:

Verse:
G:--------------------------:
D:----22-44-22--77-66-44-22-:
A:-44-----------------------: x2
E:--------------------------:

then
G:----------------:
D:----------------:
A:-44-444---------: x4
E:--------555-444-:

then
G:-----------------:
D:-----------------:
A:-4-4-4-4---------: x4
E:---------5-5-4-4-:

then
G:-------------------:
D:-------------------:
A:-------------------:
E:-22222222-44444444-:

Back to Intro
Back to Verse, skip pt. 1

Outro:
G:-----------------------:
D:-----------------------:
A:-4444-4444-4444--------: play a lot... end
E:----------------44-2-0-:
            
Submit corrections

comments powered by Disqus
↑ Back to top | Against All Authority Bass for Wet Foot Policy. Lyrics for acoustic guitar and electric guitar. 1 Tablatures and chords are parodies/interpretations of the original songs. You may use it for private study, scholarship, research or language learning purposes only