» » »

Walking Revelution Bass tabs (ver.1)

Artists:  A B C D E F G H I J K L M N O P Q R S T U V W X Y Z # 

Walking Revelution Bass tabs (ver.1)

Against All Authority
Rating:
0/5 (0 votes)

Hard to play? Try these video lessons and learn fast.
                CHORUS
G:---------------------------
D:---------------------------
A:-7>----7>----------7>-6-7>-
E:----5>----5>-7>-5>---------

VERSE
G:--------------------------
D:--------------------------
A:-7-7-0-0-0-7-0----------7-
E:---------------7>-5-5-5---
CHORUS
G:---------------------------
D:---------------------------
A:-7>----7>----------7>-6-7>-
E:----5>----5>-7>-5>---------

VERSE
G:--------------------------
D:--------------------------
A:-7-7-0-0-0-7-0----------7-
E:---------------7>-5-5-5---
            
Hard to play? Try these video lessons and learn fast. | Correct




comments powered by Disqus
↑ Back to top | Tablatures and chords are parodies/interpretations of the original songs. You may use it for private study, scholarship, research or language learning purposes only