» » »

Against All Authority, Toby Tabs (ver.1)

Artists:  A B C D E F G H I J K L M N O P Q R S T U V W X Y Z # 

Toby Tabs (ver.1)

Against All Authority Tabs
 Rating:
4/5 (4 votes)
Toby lessons Tabs too difficult? Try these video lessons and learn fast
                Intro
e|--------------|
B|--------------|
G|-999----------|
D|-999-7-777-9--|
A|-777-7-777-9--|
E|-----5-555-7--|

Verse
e|-x-7-x-7-x-7-x-7-x-5-x-5-x-5-x-5-x-7-x-7-x-7-x-7-x-7-x-7-x-7-x-7--|
B|-x-9-x-9-x-9-x-9-x-5-x-5-x-5-x-5-x-7-x-7-x-7-x-7-x-9-x-9-x-9-x-9--|
G|-x-9-x-9-x-9-x-9-x-6-x-6-x-6-x-6-x-8-x-8-x-8-x-8-x-9-x-9-x-9-x-9--|
D|------------------------------------------------------------------|
A|------------------------------------------------------------------|
E|------------------------------------------------------------------|

Chorus
e|-----------------------------------------|
B|-----------------------------------------|
G|-6666------9999------6666----------------|
D|-6666-7777-9999-9999-6666-7777-99999999--|
A|-4444-7777-7777-9999-4444-7777-99999999--|
E|------5555------7777------5555-77777777--|

Verse #3
e|----------------------|
B|----------------------|
G|-9999-----------9999--|
D|-9999-7777-9999-9999--|
A|-7777-7777-9999-7777--|
E|------5555-7777-------|

Song Layout:
intro
verse 4x
chorus 2x
verse 4x
chorus 2x
verse #3 4x
chorus 2x

again, an easy, lazy way :P
            
Submit corrections

comments powered by Disqus
↑ Back to top | Against All Authority Tabs for Toby. Lyrics for acoustic guitar and electric guitar. Tablatures and chords are parodies/interpretations of the original songs. You may use it for private study, scholarship, research or language learning purposes only