» » »

Against All Authority, The Bottle's Lookin' Better Bass tabs (ver.1)

Artists:  A B C D E F G H I J K L M N O P Q R S T U V W X Y Z # 

The Bottle's Lookin' Better Bass tabs (ver.1)

Against All Authority Tabs
 Rating:
4/5 (4 votes)
The Bottle's Lookin' Better lessons Tabs too difficult? Try these video lessons and learn fast
                Intro:                                              Order:
E----5-5---------------------*--5-5--3--5--]            Intro(1x)
A--------4-4--7-7-7--5-4-----*-------------]            Verse(4x)
G----------------------------*-------------]            Chorus(1x)
D----------------------------*-------------]            Part after chorus(1x)
Play part bfore stars 3 times                           Intro(1x)
                                                        Verse(4x)
Verse:                                                  Chorus(1x)
E---------------------]                                 Part after chorus(1x)
A---3>--4>--7>--5>----]                                 Solo(12x)
D---------------------]                                 Chorus(1x)
G---------------------]                                 Part after chorus(1x)
                                                        Intro(1x)
Chorus:                                                 Outtro(1x)
E-----------------------------]
A--3>--5>--1>--7-7-7-7-7-7-7--]
D-----------------------------]
G-----------------------------]

Part after chorus:
(3x)                 (1x)           (2x)
E--5-5-5-5---------*--------------*--5-5-5-----------]
A----------6-6--7-7*--5-5--3--5-5-*--------6-6--7-7--]
D------------------*--------------*------------------]
G------------------*--------------*------------------]

Solo:                 On 3rd and 11th time play...
E------------------*----------------------]
A-5-5-5-5-5-5--4-4-*--7-7-7-7-7-7---6-6---]
D------------------*----------------------]
G------------------*----------------------]

Outtro:
E---5-(let ring)-----5------]
A---------------------------]
D---------------------------]
G---------------------------]
            
Submit corrections

comments powered by Disqus
↑ Back to top | Against All Authority Bass for The Bottle's Lookin' Better. Lyrics for acoustic guitar and electric guitar. Tablatures and chords are parodies/interpretations of the original songs. You may use it for private study, scholarship, research or language learning purposes only