» » »

Sunshine Fist Magnet Bass tabs (ver.1)

Artists:  A B C D E F G H I J K L M N O P Q R S T U V W X Y Z # 

Sunshine Fist Magnet Bass tabs (ver.1)

Against All Authority
Rating:
0/5 (0 votes)

Hard to play? Try these video lessons and learn fast.
                Pretty easy and cool song.

Intro:

G--------------------------------------------------|
D----------------------3---------------------------|
A-------3--5~-------------------3--5~--------------|
E-5~----------------------5~--------------1--------|

Verse:

G-------------------------------------------------------------------|
D-----------------------3-33----------------------------------------|
A-----3------3---5-5-555-----5-3-----3------3---5-5-555------3------|(X2)
E-5-55-555-55-55-----------------5-55-555-55-55--------1-11-3-------|

Chorus:

G--------------------------------------------------------------------|
D---------3-3333------------------------------3-3333-----------------|
A-----345--------53-----345---------3-----345--------54-3-333-333333-|(X2)
E-5-5--------------5-5-----1-1111-3---5-5----------------------------|

Verse(X2)

Chorus(X2)

Bridge:
G-----------------------------------|
D-----------------------------------|
A-----------------------------------|
E-55-555-555-555-555-555-555-555----|

G--------------------------------------------------------------------|
D-----------------33-333-333-333-3-----------------33-333-3----------|
A----------------------------------------------------------33-333-3--|(X2)
E-55-555-555-555-5-----------------55-555-555-555-5------------------|

(bass solo)
G----------------------------------------------------------------------|
D---------3-3333--------------------------------3-3333-----------------|
A-----345--------5-33-----345---------3-----345--------54-3-333-333333-|(X2)
E-5-5-----------------5-5-----1-1111-3--5-5----------------------------|

Chorus(X2)

End:

E-55-555-555-555-555-555-55------
            
Hard to play? Try these video lessons and learn fast. | Correct




comments powered by Disqus
↑ Back to top | Tablatures and chords are parodies/interpretations of the original songs. You may use it for private study, scholarship, research or language learning purposes only