» » »

Against All Authority, Police Man Tabs (ver.1)

Artists:  A B C D E F G H I J K L M N O P Q R S T U V W X Y Z # 

Police Man Tabs (ver.1)

Against All Authority Tabs
Rating:
0/5 (0 votes)
Police Man lessons Tabs too difficult? Try these video lessons and learn fast
                VERSE (play part before stars 4 times)
e|----------------------------*-----------------------------------------------|
B|----------------------------*-----------------------------------------------|
G|---------------------8-7-7--*-----------------------------------------------|
D|--7-7-7-3-6-6--7-7-7-8-7-7--*--5--------------------------------------------|
A|--7-7-7-3-6-6--7-7-7-6-5-5--*--5--------------------------------------------|
E|--5-5-5-1-4-4--5-5-5--------*--3--------------------------------------------|
	           		 a bunch of times palm muted

(play part before stars twice)
e|---------------*------------------------------------------------------------|
B|---------------*------------------------------------------------------------|
G|---------------*------------------------------------------------------------|
D|--7-7-7-3-6-6--*--5---------------------------------------------------------|
A|--7-7-7-3-6-6--*--5---------------------------------------------------------|
E|--5-5-5-1-4-4--*--3---------------------------------------------------------|
		    a bunch of times palm muted

e|---------------------------------------------------------------------------|
B|---------------------------------------------------------------------------|
G|--------8-7-7--------8-7-7-------------------------------------------------|
D|--7-7-7-8-7-7--7-7-7-8-7-7-------------------------------------------------|
A|--7-7-7-6-5-5--7-7-7-6-5-5-------------------------------------------------|
E|--5-5-5--------5-5-5-------------------------------------------------------|

e|---------------------------------------------------------------------------|
B|---------------------------------------------------------------------------|
G|------------------5-5-5-5-5-5-5-5-------------------------7-7-7-7----------|
D|--7-7-7-7-7-7-7-7-5-5-5-5-5-5-5-5-5-5-5-5-5-5-5-5-2-2-2-2-7-7-7-7----------|
A|--7-7-7-7-7-7-7-7-3-3-3-3-3-3-3-3-5-5-5-5-5-5-5-5-2-2-2-2-5-5-5-5----------|
E|--5-5-5-5-5-5-5-5-----------------3-3-3-3-3-3-3-3-0-0-0-0------------------|

e|---------------------------------------------------------------------------|
B|---------------------------------------------------------------------------|
G|------------------5-5-5-5-5-5-5-5-4-4-4-4-4-4-4-4-5-5-5-5-5-5-5-5----------|
D|--7-7-7-7-7-7-7-7-5-5-5-5-5-5-5-5-4-4-4-4-4-4-4-4-5-5-5-5-5-5-5-5----------|
A|--7-7-7-7-7-7-7-7-3-3-3-3-3-3-3-3-2-2-2-2-2-2-2-2-3-3-3-3-3-3-3-3----------|
E|--5-5-5-5-5-5-5-5----------------------------------------------------------|

e|---------------------------------------------------------------------------|
B|---------------------------------------------------------------------------|
G|--4-4-4-4-4-4-4-4-5-5-5-5-5-5-5-5-4-4-5-5-4-4-5-5-4-4-5-5-4-4-5-5----------|
D|--4-4-4-4-4-4-4-4-5-5-5-5-5-5-5-5-4-4-5-5-4-4-5-5-4-4-5-5-4-4-5-5----------|
A|--2-2-2-2-2-2-2-2-3-3-3-3-3-3-3-3-2-2-3-3-2-2-3-3-2-2-3-3-2-2-3-3----------|
E|---------------------------------------------------------------------------|

REPEAT IT ALL ONCE

done!
            
Submit corrections

comments powered by Disqus
↑ Back to top | Against All Authority Tabs for Police Man. Lyrics for acoustic guitar and electric guitar. Tablatures and chords are parodies/interpretations of the original songs. You may use it for private study, scholarship, research or language learning purposes only