» » »

Against All Authority, Pestelent Bass tabs (ver.1)

Artists:  A B C D E F G H I J K L M N O P Q R S T U V W X Y Z # 

Pestelent Bass tabs (ver.1)

Against All Authority Tabs
Rating:
0/5 (0 votes)
Pestelent lessons Tabs too difficult? Try these video lessons and learn fast
                Intro
G|---------------------------------------------------------------------------|
D|---------------------------------------------------------------------------|
A|----4>-7>-6>-2>-0>---------------------------------------------------------|
E|--0>---------------4-5-----------------------------------------------------|

Part A
G|---------------------------------------------------------------------------|
D|---------------------------------------------------------------------------|
A|--4>---------4>--------4>--------------------------------------------------|
E|-----4>-5-5-----4>-5-5----4>-5-5--7>-5>-4-5--------------------------------|

Part B
G|---------------------------------------------------------------------------|
D|---------------------------------------------------------------------------|
A|--7>------7>---------------------------------------------------------------|
E|-----4-5-----4-5-----------------------------------------------------------|

Part C
G|---------------------------------------------------------------------------|
D|---------------------------------------------------------------------------|
A|-----4--------------------4-----------------4------------------------------|
E|-7-7---7--5-5-5-4-5-7-7-7---7-5-5-4-5-7-7-7---7--7-5-5--5-4-2-0------------|

Part D
G|---------------------------------------------------------------------------|
D|---------------------------------------------------------------------------|
A|-------5-5-5-----------------5-5-5-----------------------------------------|
E|-0-0-0-------5>-5-4-0--0-0-0-------5-5-5-5-4-5-----------------------------|
            

comments powered by Disqus
↑ Back to top | Against All Authority Bass for Pestelent. Lyrics for acoustic guitar and electric guitar. Tablatures and chords are parodies/interpretations of the original songs. You may use it for private study, scholarship, research or language learning purposes only