» » »

Nothing To Lose Bass tabs (ver.2)

Artists:  A B C D E F G H I J K L M N O P Q R S T U V W X Y Z # 

Nothing To Lose Bass tabs (ver.2)

Against All Authority
Rating:
0/5 (0 votes)

Hard to play? Try these video lessons and learn fast.
                
Intro								Order:
G|-------------------------------|				Intro (x2)
D|-------------------------------|				Verse (x4)
A|---------------2-2-2-2-4-4-4-4-|				Chorus (x1)
E|-2-----------------------------|				Bridge (x4)
								Intro (x2)
Verse								Verse (x4)
G|---------------------------------|				Chorus (x1)		         D|---------------------------------|				Bridge (x4)
A|-----------------2-2-2-2-4-4-4-4-|				Intro (x2)
E|-2-2-2-2-2-2-2-2-----------------|				Verse (x4)
 								Chorus (x1)
Chorus
G|---------------------------------|-----------------|----------------------------|
D|---------------------------------|-----------------|----------------------------|
A|-4-4-4-4-4-4-4-4-2-2-2-2---------|-2-4-4-4-4-4-4-4-|-4--2---------------4-4-444-|
E|-------------------------2-2-2-2-|-----------------|-------5--4--2-2-2-2--------|
 |--------------3x----------------|-------3x-------|

Bridge
G|---------------------------------|
D|---------------------------------|
A|---------4-4-4-4---------2-2-2-2-|
E|-2-2-2-2---------4-4-4-4---------|
 
END
            
Hard to play? Try these video lessons and learn fast. | Correct




comments powered by Disqus
↑ Back to top | Tablatures and chords are parodies/interpretations of the original songs. You may use it for private study, scholarship, research or language learning purposes only