» » »

Nothing To Lose Bass tabs (ver.1)

Artists:  A B C D E F G H I J K L M N O P Q R S T U V W X Y Z # 

Nothing To Lose Bass tabs (ver.1)

Against All Authority
Rating:
0/5 (0 votes)

Hard to play? Try these video lessons and learn fast.
                Intro
G|---------------------------------------------------------------------------|
D|---------------------------------------------------------------------------|
A|-----2-2-2-2-4-4-4-4------2-2-2-2-4-4-4-4----------------------------------|
E|--2-------------------2----------------------------------------------------|

Verse
G|---------------------------------------------------------------------------|
D|---------------------------------------------------------------------------|
A|-----------2-2-2-2-4-4-4-4-------------------------------------------------|
E|-2-2-2-2-2-----------------------------------------------------------------|

Chorus
G|---------------------------*-----------------------------------------------|
D|---------------------------*-----------------------------------------------|
A|-4-4-4-4-4-2-2-2-2---------*--2-4>-2-4>-2-4>-4>-4-2--------4---------------|
E|-------------------2-2-2-2-*------------------------5-4-2>-----------------|
play part before stars thrice  play part after twice w/ the horns

Hornage!
G|---------------------------------------------------------------------------|
D|---------------------------------------------------------------------------|
A|-----4>-----2>-------------------------------------------------------------|
E|--2>-----4>----------------------------------------------------------------|
   play part twice w/ the horns

part X
G|---------------------------------------------------------------------------|
D|---------------------------------------------------------------------------|
A|-------2-2-2-2-4-4-4-4-------2-2-2-2-4-4-4---------------------------------|
E|-pause------------------2--------------------------------------------------|
            
Hard to play? Try these video lessons and learn fast. | Correct




comments powered by Disqus
↑ Back to top | Tablatures and chords are parodies/interpretations of the original songs. You may use it for private study, scholarship, research or language learning purposes only