» » »

Justification Bass tabs (ver.1)

Artists:  A B C D E F G H I J K L M N O P Q R S T U V W X Y Z # 

Justification Bass tabs (ver.1)

Against All Authority
Rating:
0/5 (0 votes)

Hard to play? Try these video lessons and learn fast.
                Intro -
G|------------------------------------------------------| x 2
D|------------------------------------------------------|
A|--------77777-------------------------77777-5545-5545-|
E|-5-5-555--------5-5-555-00012-5-5-555-----------------|

Verse 1 & 2 -
G|-----------------------------------------|
D|-----------------------------------------|
A|------------55555555----------------5555-|
E|-55555555------------2222-0000-2222------|

G|-----------------------------------------|
D|-----------------------------------------|
A|------------55443322----------------5555-|
E|-55555555------------2222-0000-2222------|

Chorus -
G|-----------------------------------------------|
D|-----------------------------------------------|
A|-------5555-------5555-------5555-22222222-----|
E|-55-00------55-00------55-00---------------0-2-|

Solo -
G|----------------------------------------------------------------|
D|----------------------------------------------------------------|
A|---------------------------------5-------2----------------------|
E|-2---------------0-------------------------------2--------------|

G|----------------------------------------------------------------|
D|-------------4------------------------7-------------------------|
A|-222222222222--2-------------4---5555--5-----7---------------4--|
E|-----------------222222222222--2--------5555--5--222222222222--2|

G|----------------------------------------------------------------|
D|-------------4------------------------7-------------------------|
A|-222222222222--2-------------4---5555--5-----7---------------4--|
E|-----------------222222222222--2--------5555--5--222222222222--2|

Verse 3 -
G|-------------------------------------------------|
D|-------------------------------------------------|
A|------------557799(11)(11)99----------------5555-|
E|-5555555555------------------2222-0000-2222------|

G|-----------------------------------------|
D|-----------------------------------------|
A|------------55443322----------------5555-|
E|-55555555------------2222-0000-2222------|
            
Hard to play? Try these video lessons and learn fast. | Correct




comments powered by Disqus
↑ Back to top | Tablatures and chords are parodies/interpretations of the original songs. You may use it for private study, scholarship, research or language learning purposes only