» » »

Against All Authority, In On Your Joke Bass tabs (ver.1)

Artists:  A B C D E F G H I J K L M N O P Q R S T U V W X Y Z # 

In On Your Joke Bass tabs (ver.1)

Against All Authority Tabs
4/5 (4 votes)
In On Your Joke lessons Tabs too difficult? Try these video lessons and learn fast
                Against All Authority
Song-In On Your Joke (track 3)
Album- Nothing New For Trash Like You

G |--------------------------------------|
D |--------------------------------------|
A |--------------------------------------|     verse
E |-5--3-3-5--3-3--5-5-5-3--3------------|

G |--------------------------------------|
D |--------------------------------------|
A |-7--7-7-7-5-------X-X-----------------|      part 1 
E |------------5--5-5--------------------|      (X= mute) the palm mutes are really fast

G |---------------------------------------|
D |---------------------------------------|
A |-5--5-5-5-3-------X-X------------------|      part 2
E |------------3--3-3---------------------|

G |-----------------------------------------------|
D |---------------5-4-5---------------------------|
A |-7--7--7-7-7-7-------------------5--5--5-5-5---|      Bridge
E |---------------------5--5--5-5-5---------------|

song order:
verse  x8
part 1 x3
part2  x1
verse  x8
part1  x3
part2  x5
bridge x4
verse  x8
part1  x3
part2  x9
Submit corrections

comments powered by Disqus
↑ Back to top | Against All Authority Bass for In On Your Joke. Lyrics for acoustic guitar and electric guitar. Tablatures and chords are parodies/interpretations of the original songs. You may use it for private study, scholarship, research or language learning purposes only