» » »

Disobey Bass tabs (ver.1)

Artists:  A B C D E F G H I J K L M N O P Q R S T U V W X Y Z # 

Disobey Bass tabs (ver.1)

Against All Authority
Rating:
0/5 (0 votes)

Hard to play? Try these video lessons and learn fast.
                "Hey! Disobey!" part (4x)
G:---------------------------------------------------]
D:-------------7-7-7--------------------7------------]
A:--5-5--5h7----------6-5------------------5---------]
E:-------------------------5-5h6--0-0-0--------------]

"I'm not gonna listen" tail part (1x)
G:--------------------------]
D:--------------------------]
A:-7--6--5--4--0------------]
E:--------------------------]

"I won't listen to you..." part (2x)
G:---------------------------------------------------------------------------]
D:---------------------------------------------------------------------------]
A:--0-0-4-7--0-0-4-7--0-0-4-7--0-0-4-7---------------------0-0-4-7--7-5-4-0--]
E:--------------------------------------0-0-4-7--0-0-4-7---------------------]

Reapeat twice in that order i think later guys
            
Hard to play? Try these video lessons and learn fast. | Correct




comments powered by Disqus
↑ Back to top | Tablatures and chords are parodies/interpretations of the original songs. You may use it for private study, scholarship, research or language learning purposes only