» » »

Dinkas When I Close My Eyes Bass tabs (ver.1)

Artists:  A B C D E F G H I J K L M N O P Q R S T U V W X Y Z # 

Dinkas When I Close My Eyes Bass tabs (ver.1)

Against All Authority
Rating:
0/5 (0 votes)

Hard to play? Try these video lessons and learn fast.
                Intro
G|---------------------------------------------------------------------------|
D|---------------------------------------------------------------------------|
A|------------4-3-3>----------3-2-2>-----------------------------------------|
E|--2--2-2---------2--2-2----------------------------------------------------|

G|---------------------------------------------------------------------------|
D|---------------------------------------------------------------------------|
A|-----------5-5-5-5---------------------------------------------------------|
E|--2-2-2----------7--7-7-7-7--5--5-5-5-5-4-4-2------------------------------|

G|---------------------------------------------------------------------------|
D|---------------------------------------------------------------------------|
A|------------4-3-3>----------3-2-2>-----------------------------------------|
E|--2--2-2---------2--2-2----------------------------------------------------|

Outro
G|---------------------------------------------------------------------------|
D|---------------------------------------------------------------------------|
A|-------------------------3-2-------------------------3-2-------------------|
E|-1h2-2-2-1h2-2-2-1h2-2-2-----1h2-2-2-1h2-2-2-1h2-2-2-----------------------|

Outro
G|---------------------------------------------------------------------------|
D|---------------------------------------------------------------------------|
A|-------------------------3-2-3-3>-5>-5-3-----------------------------------|
E|-1h2-2-2-1h2-2-2-1h2-2-2-----------------5-3-2-----------------------------|
            
Hard to play? Try these video lessons and learn fast. | Correct




comments powered by Disqus
↑ Back to top | Tablatures and chords are parodies/interpretations of the original songs. You may use it for private study, scholarship, research or language learning purposes only